#----------------------------------PLEASE NOTE---------------------------------#
#This file is the author's own work and represents their interpretation of the #
#song. You may only use this file for private study, scholarship, or research. #
#Unless specified otherwise, this is NOT an official tab from the band members.#
#------------------------------------------------------------------------------#

  Visit MetalTabs.com for more metal tablature
  
Band:  Agathocles
Album: Bomb Brussels
Song:  A for arrogance

Copyright (c)  Badger records 2001
Version 1  25/08/2006

Transcribed By: adam bombsack
Email:          verlindenmaarten@hotmail.com


.  - palm mute           /  - slide up to
\  - slide down to       ~  - vibrato
h  - hammer on           b  - Bend
p  - pull off            Suffixes for bend
t  - tap                 f  - full bend    h - half bend
ph - pinched harmonic    q  - quarter bend t - tap bend
*  - see comment         ^  - Hold bend    r release bend
x  - Stuccatto           ~  - vibrato bend
,  - slight palm mute    () - ghost note, sustained note
"  - tremolo note        <> - Trill

Tuning B E A D G B

Riff A

|-------------------------------------------------------------------|
|-------------------------------------------------------------------|
|-------------------------------------------------------------------|
|-------------------------------------------------------------------|
|-3-3-3-3-3-3-3-3---3-3-3-3-3-3/7-7-7-7-7-7-7/2-2-2-2---------------|
|-1-1-1-1-1-1-1-1---1-1-1-1-1-1/5-5-5-5-5-5-5/0-0-0-0-2ph-----------|
    . . . . . .     . . . . .     . . . . .     . . .

Riff B

|-------------------------------------------------------------------|
|-------------------------------------------------------------------|
|-------------------------------------------------------------------|
|-------------------------------------------------------------------|
|-2-2-2-4-5-5-2-2-2-4-3-3-7-7-7-7-7-7-7-2-2-2-----------------------|
|-0-0-0-2-3-3-0-0-0-2-1-1-5-5-5-5-5-5-5-0-0-0-2ph-------------------|

Songstructure: A B A B

  Visit MetalTabs.com for more metal tablature