top separator

Home

Forum

What's New

Submit a Tab

FAQ

Links

Contact Us

Link to Us

MuSpy.com

MetalTabs.com logo

Bands

0-9

A

B

C

D

E

F

G

H

I

J

K

L

M

N

O

P

Q

R

S

T

U

V

W

X

Y

Z

Search

What

Where
 

Nephasth - "Hate Earth" Guitar Tab

Plain Text Version
More Nephasth Tabs

Hits: 1649
Updated: 2006-09-03 00:48:36

 

By:

Morbus

sendpm.gif

email.gif

Important note
We did our best to reach Nephasth and ask for their permission to publish this tab. Unfortunately they did not respond to our requests or we could not find a way to contact them. This tab is available online until Nephasth tells us to take it down.


#----------------------------------PLEASE NOTE---------------------------------#
#This file is the author's own work and represents their interpretation of the #
#song. You may only use this file for private study, scholarship, or research. #
#Unless specified otherwise, this is NOT an official tab from the band members.#
#------------------------------------------------------------------------------#

  Visit MetalTabs.com for more metal tablature
  
Band:  Nephasth
Album: Conceived by Inhuman Blood
Song:  Hate Earth

Copyright (c)  Mighty Music 2004
Version 1.0 - (22.08.2006)

Transcribed By: Morbus
Email:          morbus_void@hotmail.com


.  - palm mute           /  - slide up to
\  - slide down to       ~  - vibrato
h  - hammer on           b  - Bend
p  - pull off            Suffixes for bend
t  - tap                 f  - full bend    h - half bend
ph - pinched harmonic    q  - quarter bend t - tap bend
*  - see comment         ^  - Hold bend    r release bend
x  - Stuccatto           ~  - vibrato bend
,  - slight palm mute    () - ghost note, sustained note
"  - tremolo note        <> - Trill

Tuning C#


Intro
|------------------|
|------------------|
|------------------| Gt1
|----------5-/6----|
|------------------|
|--0---0-0-3/-4----|
   .   . .

|------------------|
|------------------|
|------------------| Gt2
|----------9-/10---|
|------------------|
|--0---0-0-7/-8----|
   .   . .




Riff 1a (0:18)
|-----------------------------------------------------------|
|-----------------------------------------------------------|
|-----------------------------------------------------------|
|--9----10----9----10-/12--9----10----9----10\-7------------|
|--7----8-----7----8-/-10--7----8-----7----8--\5------------|
|----0"----0"---0"-----------0"----0"---0"------------------|



Riff 1b (0:22)
|-----------------------------------------------------------|
|-----------------------------------------------------------|
|-----------------------------------------------------------|
|-----------------------------------------------------------|
|--7----8-----7----8h10--7----8-----7----8p5----------------|
|----0"----0"---0"---------0"----0"---0"--------------------|



Riff 2 (0:25)
|-----------------------------------------------------------|
|-----------------------------------------------------------|
|-----------------------------------------------------------|
|--9"----10"----9"--10"-12"--9"----10"----9"--10"-7"--------|
|--7-----8------7---8---10---7-----8------7---8---5---------|
|-----------------------------------------------------------|


Riff 1b x2


Riff 3 (0:37)
|----------------------------|
|----------------------------|
|----------------------------|
|----------------------------|
|--2"---1"----1"------1"-----|
|----------3"------3"--------|


Riff 4a (0:39)
|---------------------|
|---------------------|
|---------------------|
|---------------------|
|---------------------|
|--0"--3"--1"--3"-----|


Riff 3  x2
Riff 4a x2
Riff 3  x2
Riff 4a x2
Riff 3  x2


Riff 4b (0:50)
|---------------------------------|
|---------------------------------|
|---------------------------------|
|------------------2--5--3--5-----|
|------------------2--5--3--5-----|
|--0"--3"--1"--3"--0--3--1--3-----|
		   .  .  .  .


Riff 4c (0:52)
|---------------------|
|---------------------|
|---------------------| Gt1
|---------------------|
|---------------------|
|--0"--3"--1"--3"-----|

|---------------------|
|---------------------|
|---------------------| Gt2
|---------------------|
|---------------------|
|--3"--6"--4"--6"-----|


Riff 1a x1
Riff 1b x2
Riff 1a x2


Riff 5a (1:15)
|---------------------------------|
|---------------------------------|
|---------------------------------|
|---------------------------------|
|---------------------------------|
|--1h3-0"-3h4-0"-4h6-0"-6h7-0"----|



Riff 5b (1:19)
|---------------------------------|
|---------------------------------|
|---------------------------------| Gt1
|---------------------------------|
|---------------------------------|
|--1h3-0"-3h4-0"-4h6-0"-6h7-0"----|

|---------------------------------|
|---------------------------------|
|---------------------------------| Gt2
|---------------------------------|
|---------------------------------|
|--4h6-0"-6h7-0"-7h9-0"-9h10-0"---|



Riff 6a (1:23)
|---------------------------------|
|---------------------------------|
|---------------------------------|
|---------------------------------|
|---------------------------------|
|--3"-2"-5"-4"-7"-6"-9"-8"--------|



Riff 6b (1:27)
|---------------------------------|
|---------------------------------|
|---------------------------------| Gt1
|---------------------------------|
|---------------------------------|
|--3"-2"-5"-4"-7"-6"-9"-8"--------|

|---------------------------------|
|---------------------------------|
|---------------------------------| Gt2
|---------------------------------|
|---------------------------------|
|--6"-5"-8"-7"-10"-9"-12"-11"-----|


Riff 5a x2
Riff 5b x2


Riff 7 (1:38) x1
|----------------------------------------------|
|----------------------------------------------|
|----------------------------------------------|
|--9"------10"------9"-------3"--5"------------|
|--7-------8--------7--------3---5-------------|
|----00100----00100----00100-1---3-------------|


  x3
|----------------------------------------------|
|----------------------------------------------|
|----------------------------------------------|
|--9"------10"------9"-------10"--12"----------|
|--7-------8--------7--------8----10-----------|
|----00100----00100----00100-------------------|


Riff 3  x2
Riff 4a x2
Riff 3  x2
Riff 4a x2
Riff 3  x2
Riff 4a x2
Riff 3  x2
Riff 4b x1
Riff 4c x4


Riff 8 (2:13)
|------------------------------------------------------|
|------------------------------------------------------|
|------------------------------------------------------| Gt1
|--5---8-----------5---8-------------------------------|
|--------2-2-2-----------2-2-2-222-2-2-2-222-2-2-2-----|
|--3---6-0-0-0-----3---6-0-0-0-000-0-0-0-000-0-0-0-----|
	 . . .		 . . . ... . . . ... . . .

|------------------------------------------------------|
|------------------------------------------------------|
|--7---10----------7---10------------------------------| Gt2
|------------------------------------------------------|
|--5---8-2-2-2-----5---8-2-2-2-222-2-2-2-222-2-2-2-----|
|--------0-0-0-----------0-0-0-000-0-0-0-000-0-0-0-----|
	 . . .		 . . . ... . . . ... . . .


|-------------------------------|------------------------------------|
|-------------------------------|------------------------------------|
|-------------------------------|------------------------------------|
|--4--3--7--6--9--8--12---------|--4--3--7--6--9--8--12-----11-2-----|
|--4--3--7--6--9--8--12--2-2-2--|--4--3--7--6--9--8--12-----11-2-----|
|--2--1--5--4--7--6--10--0-0-0--|--2--1--5--4--7--6--10-000-9--0-----|
			 . . .				...


Riff 9a (2:48)
|--------------------------|
|--------------------------|
|--------------------------|
|--11"----9"-12"-----------|
|--9------7--10------------|
|--------------------------|


Riff 9b (2:56)
|-------------------------------------------------------------|
|-------------------------------------------------------------|
|-------------------------------------------------------------| Gt1
|-------------------------------------------------------------|
|-------------------------------4"-----------4"---------------|
|--2"-----0"-3"-2"-----0"-3"-2"-----0"-3"-2"-----0"-3"-2"-----|

|-------------------------------------------------------------|
|-------------------------------------------------------------|
|-------------------------------------------------------------| Gt2
|-------------------------------------------------------------|
|-------------------------------------------------------------|
|--2"-----0"-3"-2"-----0"-3"-2"-----0"-3"-2"-----0"-3"-2"-----|


Riff 9a x4
Riff 9b x4

Riff 9c (3:20)
|--------------------------|
|------10"-----------------|
|--11"-11---9--12----------|
|--11--11---9--12----------|
|--9---9----7--10----------|
|--------------------------|
	    .   .

Riff 7  x4
Riff 3  x2
Riff 4a x2
Riff 3  x2
Riff 4a x2
Riff 3  x2
Riff 4a x2
Riff 3  x2
Riff 4c x4
Riff 5a x4
Riff 6a x2
Riff 6b x2
Introriff x4


Riff 10 (4:23)
|--------------|
|--------------|
|--------------|
|-------5-6----|
|-------5-6----|
|--0"---3-4----|


Introriff x4

END

  Visit MetalTabs.com for more metal tablature

bottom separator

Contact Us | Privacy Policy | Disclaimer | Legal Notice
Copyright © 2001-2014 MetalTabs.com. All Rights Reserved.