top separator

Home

Forum

What's New

Submit a Tab

FAQ

Links

Contact Us

Link to Us

MuSpy.com

MetalTabs.com logo

Bands

0-9

A

B

C

D

E

F

G

H

I

J

K

L

M

N

O

P

Q

R

S

T

U

V

W

X

Y

Z

Search

What

Where
 

Mourning Beloveth - "The Crashing Wave" Bass Tab

Plain Text Version
More Mourning Beloveth Tabs

Hits: 1889
Rated: 5.00 out of 5 (3 votes)
Updated: 2006-11-07 06:26:32

 

By:

Paddy

sendpm.gif

email.gif

Important note
This tab is available online because we obtained explicit permission from Mourning Beloveth or their label.


#----------------------------------PLEASE NOTE---------------------------------#
#This file is the author's own work and represents their interpretation of the #
#song. You may only use this file for private study, scholarship, or research. #
#Unless specified otherwise, this is NOT an official tab from the band members.#
#------------------------------------------------------------------------------#

  Visit MetalTabs.com for more metal tablature
  
================================================================================
                        M O U R N I N G   B E L O V E T H

                                        -

                        T H E   C R A S H I N G   W A V E
================================================================================


                               A MURDEROUS CIRCUS
                            (c) Grau Records - 2005
                        http://www.mourningbeloveth.com/


                              Tune Down 1 & 1/2 Steps
                                    C# F# B E

                                 Tempo =  55 BPM
                               Time Signature = 4/4



                          -----------------------------
                                 Transcribed by

                                 PADDY MCMULLAN
                           stinkypoohpants@yahoo.co.uk

                                   Version 1.0
                             -----------------------

                             Tablature Symbols Used:


 p         -  Pull-Off
 h         -  Hammer-On
 (/)       -  Legato Slide (Blank space indicates length of slide)
 \         -  Slide Down to/Down From (Blank space indicates length of slide)
 /         -  Slide Up To/Up From (Blank space indicates length of slide)
 ( )       -  Ghost Note/Tied Note/Implied Note



================================================================================
Rest for 4 bars
================================================================================

================================================================================
Riff 1: (Play twice)
================================================================================


  1                    2                    3
||--------------------|--------------------|--------------------|
||--------------------|--------------------|--------------------|
||--2--------1--------|--------------------|--2--------1--------|
||--------------------|--2--------3--------|--------------------|

 4                     5                    6
|---------------------|--------------------|---------------------|
|---------------------|--------------------|---------------------|
|------------------*--|--2--------2--------|--2--------3------0--|
|--2--------3------2--|--------------------|---------------------|

 7                      8                      9
|----------------------|----------------------|--------------------|
|----------------------|----------------------|--------------------|
|----------------------|----------------------|--2--------2--------|
|--3------3--3------3--|--3------3--3------2--|--------------------|

 10                    11                     12
|---------------------|----------------------|----------------------|
|---------------------|----------------------|----------------------|
|--2--------3------0--|----------------------|----------------------|
|---------------------|--3------3--3------3--|--3------3--3------3--|

 13                   14                   15
|--------------------|--------------------|----------------------|
|--------------------|--------------------|----------------------|
|--*-----------------|--------------------|----------------------|
|--2--------2--------|--0--------0--------|--3------3--3------3--|

 16                     17                   18
|----------------------|--------------------|---------------------|
|----------------------|--------------------|---------------------|
|----------------------|--------------------|---------------------|
|--3------3--3------3--|--2--------2--------|--0--------0------0--|

 19                     20
|----------------------|----------------------| |
|----------------------|----------------------|*|
|----------------------|----------------------|*|
|--3------3--3------3--|--3------3--3------3--| |



* On bar 4 the tempo = 60
* On bar 13 the tempo = 60

* On the second repeat, from bar 1 the tempo = 66 BPM
* On the second repeat, from bar 13 the tempo = 70 BPM



After the first repeat, add the following 4 bars to the beginning of the riff
(making the riff 24 bars long)



||--------------------|--------------------|--------------------|
||--------------------|--------------------|--------------------|
||--2--------1--------|--------------------|--2--------1--------|
||--------------------|--2--------3--------|--------------------|


|--------------------||
|--------------------||
|--------------------||
|--2--------3--------||



================================================================================
Riff 2: (Play 4 times)
================================================================================


  1                     2                          3
||---------------------|--------------------------|---------------------|
||---------------------|--------------------------|---------------------|
||--2------2--2--------|--2--2----2--2--(2)/5--7--|--5------5--5--------|
||---------------------|--------------------------|---------------------|

 4                        5                      6
|------------------------|----------------------|-----------------------|
|------------------------|----------------------|-----------------------|
|--5--5----5--5--7--5----|--2------2--2------2--|-----------------------|
|------------------------|----------------------|--3------3--3--3----3--|

 7                         8
|-------------------------|------------------------| |
|---------------0h 2------|------------------------|*|
|--2------2--2---------2--|--0------0--0--0--0--0--|*|
|-------------------------|------------------------| |



After the first repeat, replace the 7th bar with the following for all
subsequent repeats:


 7
|-------------------------|
|-------------------------|
|--2------2--2--2h 4---2--|
|-------------------------|



================================================================================
Riff 3: (Play 4 times)
================================================================================


  1 |_3_| |_3_| |_3_| |_3_| |_3_| |_3_| |_3_| |_3_|
||--R ----------------------------------------------|
||--E ----------------------------------------------|
||--S --2-2-2-2-2-1-1-1-1-1-1-----------------------|
||--T ------------------------2-2-2-2-2-2-3-3-3-3-3-|


 2 |_3_| |_3_| |_3_| |_3_| |_3_| |_3_| |_3_| |_3_|
|--R ----------------------------------------------|
|--E ----------------------------------------------|
|--S --2-2-2-2-2-1-1-1-1-1-1-----------------------|
|--T ------------------------2-2-2-2-2-2-3-3-3-3-3-|


 3 |_3_| |_3_| |_3_| |_3_| |_3_| |_3_| |_3_| |_3_|
|--R ----------------------------------------------|
|--E ----------------------------------------------|
|--S --2-2-2-2-2-1-1-1-1-1-1-----------------------|
|--T ------------------------2-2-2-2-2-2-3-3-3-3-3-|


 4 |_3_| |_3_| |_3_| |_3_| |_3_| |_3_| |_3_| |_3_|
|--R ----------------------------------------------|
|--E ----------------------------------------------|
|--S --2-2-2-2-2-1-1-1-1-1-1-----------------------|
|--T ------------------------2-2-2-2-2-2-3-3-3-3-3-|


 5 |_3_| |_3_| |_3_| |_3_| |_3_| |_3_| |_3_| |_3_|
|--------------------------------------------------|
|--------------------------------------------------|
|--2-2-2-2-2-2-2-2-2-2-2-2-2-2-2-2-2-2-2-2-3-3-----|
|----------------------------------------------5-5-|


 6 |_3_| |_3_| |_3_| |_3_| |_3_| |_3_| |_3_| |_3_|
|--------------------------------------------------|
|--------------------------------------------------|
|--------------------------------------------------|
|--5-3-3-3-3-3-3-3-3-3-3-3-3-3-3-3-3-3-3-3-3-3-3-3-|


 7 |_3_| |_3_| |_3_| |_3_| |_3_| |_3_| |_3_| |_3_|
|--------------------------------------------------|
|--------------------------------------------------|
|--2-2-2-2-2-2-2-2-2-2-2-2-2-2-2-2-2-2-2-2-3-3-----|
|----------------------------------------------5-5-|


 8 |_3_| |_3_| |_3_| |_3_| |_3_| |_3_| |_3_| |_3_|
|--------------------------------------------------|
|--------------------------------------------------|
|--------------------------------------------------|
|--5-3-3-3-3-3-3-3-3-3-3-3-3-3-3-3-3-3-3-3-3-3-3-3-|


 9 |_3_| |_3_| |_3_| |_3_| |_3_| |_3_| |_3_| |_3_|
|--------------------------------------------------|
|--------------------------------------------------|
|--------------------------------------------------|
|--2-2-2-2-2-2-2-2-2-2-2-2-0-0-0-0-0-0-0-0-0-0-0-0-|


10 |_3_| |_3_| |_3_| |_3_| |_3_| |_3_| |_3_| |_3_|
|--------------------------------------------------|
|--------------------------------------------------|
|--------------------------------------------------|
|--3-3-3-3-3-3-3-3-3-3-3-3-3-3-3-3-3-3-3-3-3-3-3-0-|


11 |_3_| |_3_| |_3_| |_3_| |_3_| |_3_| |_3_| |_3_|
|--------------------------------------------------|
|--------------------------------------------------|
|--------------------------------------------------|
|--2-2-2-2-2-2-2-2-2-2-2-2-0-0-0-0-0-0-0-0-0-0-0-0-|


12 |_3_| |_3_| |_3_| |_3_| |_3_| |_3_| |_3_| |_3_|
|--------------------------------------------------| |
|--------------------------------------------------|*|
|--------------------------------------------------|*|
|--3-3-3-3-3-3-3-3-3-3-3-3-3-3-3-3-3-3-3-3-3-3-3-0-| |



================================================================================
Riff 4: (Play 12 times) [ Tempo = 67 BPM ]
================================================================================


||----------------------|----------------------------| |
||----------------------|----------------------------|*|
||-----------2---2---0--|--0h 2h 3--3--3--3--3--3----|*|
||--0-------------------|----------------------------| |



================================================================================
Riff 5: (Play 4 times) [ Tempo = 70 BPM ]
================================================================================


  1                     2                         3
||---------------------|-------------------------|---------------------|
||---------2--2--------|-(2)-3--3--3--3----5--2--|--2------2--2--------|
||--0------------------|-------------------------|---------------------|
||---------------------|-------------------------|---------------------|

 4                         5                     6
|-------------------------|---------------------|-------------------------|
|-(2)---------------------|---------------------|-------------------------|
|-----3--3--3--2-------0--|--0------0--0--------|-(0)-0--2--3--5--3--2----|
|-------------------3-----|---------------------|-------------------------|

 7                    8
|--------------------|------------------------| |
|--3-----------------|--2----0----------------|*|
|-----------3--------|----------2----2----0-0-|*|
|--------------------|------------------------| |



================================================================================
Riff 6: (Play 3 times) [ Tempo = 54 BPM ]
================================================================================


  1                    2                      3
||--------------------|----------------------|------------------------|
||--------------------|----------------------|------------------------|
||--3--------3--------|--3--------5--------3-|--3--2--2-----------2-0-|
||--------------------|----------------------|------------------------|

 4                     5                      6
|---------------------|----------------------|----------------------|
|---------------------|----------------------|----------------------|
|--2------------------|--3--------3------3-2-|--3--------5--------3-|
|-----------3----2----|----------------------|----------------------|

 7                        8
|------------------------|---------------------| |
|------------------------|---------------------|*|
|--3--2--2-----------2-0-|--2------------------|*|
|------------------------|-----------3----2----| |



On the last repeat, replace the last bar with the following:



|-------------------R -|
|-------------------E -|
|--2----------------S -|
|---------------3-2-T -|



================================================================================
Riff 7: (Play 10 times) [ Tempo = 58 BPM ]
================================================================================


||---------------------------------|------------------------R -| |
||-----------2-2-2--0--0--0--------|------------------------E -|*|
||---------------------------0--2--|--3---3-3---3-3---3-----S -|*|
||--0---0-0------------------------|--------------------3-2-T -| |



* On the 4th repeat the tempo increases to 62 BPM



================================================================================
End
================================================================================


Tab summary:        Riff 1 x 2
                    Riff 2 x 4
                    Riff 3 x 4
                    Riff 4 x 12
                    Riff 5 x 4
                    Riff 6 x 3
                    Riff 7 x 10

                    END

  Visit MetalTabs.com for more metal tablature

bottom separator

Contact Us | Privacy Policy | Disclaimer | Legal Notice
Copyright © 2001-2014 MetalTabs.com. All Rights Reserved.