top separator

Home

Forum

What's New

Submit a Tab

FAQ

Links

Contact Us

Link to Us

MetalTabs.com logo

Bands

0-9

A

B

C

D

E

F

G

H

I

J

K

L

M

N

O

P

Q

R

S

T

U

V

W

X

Y

Z

Search

What

Where
 

Maniac Butcher - "What's Good For Me, That Good is...." Guitar Tab

Plain Text Version
More Maniac Butcher Tabs

Hits: 2773
Rated: 5.00 out of 5 (1 vote)
Updated: 2006-08-31 09:14:16

 

By:

Evil

sendpm.gif

email.gif

Important note
This tab is available online because we obtained explicit permission from Maniac Butcher or their label.


#----------------------------------PLEASE NOTE---------------------------------#
#This file is the author's own work and represents their interpretation of the #
#song. You may only use this file for private study, scholarship, or research. #
#Unless specified otherwise, this is NOT an official tab from the band members.#
#------------------------------------------------------------------------------#

  Visit MetalTabs.com for more metal tablature
  
Band: Maniac Buthcer
Album: Epitaph - The Final Onslaught of Maniac Butcher
Song: What's Good For Me, That Good is....
Evil blackmetal_norway@hotmail.com


Riff 1 Intro, Play it fast
|-----------------------------------|
|-------------------------2-3-2-3---|
|--5------4------5------4-----------|
|--3------2------3------2-----------|
|---000000-000000-000000------------|
|-----------------------------------|


Cont.
|---------------------------------------|
|---------------------------------------|
|--5------4------5----------------------|
|--3------2------3----------------5"-6"-|
|---000000-000000-000000----------3"-4"-|
|---------------------------------------|

Cont.
|-----------------------------------|
|-------------------------2-3-2-3---|
|--5------4------5------4-----------|
|--3------2------3------2-----------|
|---000000-000000-000000------------|
|-----------------------------------|

Cont.
|-----------------------------------------|
|-----------------------------------------|
|--5------4-------2"-3"-2"----------------|
|--3------2----------------3"-2"-------2--|
|---000000-000000----------------3"-2"-0--|
|-----------------------------------------|

Riff 1b
|-----------------------------------|
|-------------------------6-7-6-7---|
|--9------8------9------8-----------|
|--7------6------7------6-----------|
|---000000-000000-000000------------|
|-----------------------------------|

Cont.
|---------------------------------------|
|---------------------------------------|
|--9------8------9----------------------|
|--7------6------7---------------9"-10"-|
|---000000-000000-000000---------7"-8"--|
|---------------------------------------|

Cont.
|-----------------------------------|
|-------------------------6-7-6-7---|
|--9------8------9------8-----------|
|--7------6------7------6-----------|
|---000000-000000-000000------------|
|-----------------------------------|

Cont.
|---------------------------------------|
|---------------------------------------|
|--9------8-------6"-7"-6"--------------|
|--7------6----------------7"-6"--------|
|---000000-000000----------------7"-6"--|
|---------------------------------------|

Then go back and play riff 1a. again
And end like this

|----------------------------|
|----------------------------|
|--2"-3"-2"------------------|
|-----------3"-2"------------|
|-----------------3"-2"-2"---|
|----------------------------|

Riff b with lyrics.
|-------------------------------------|
|-------------------------------------|
|-------------------------------------|
|-3"--2"--3"--3"----------------------|
|-0"--0"--0"--1"--4"--3"--4"--4"------|
|-----------------1"--1"--1"--2"------|

Riff c.
|-------------------------------------|
|-------------------------------------|
|-------------------------------------|
|-4"--5"--5"--6"--6"--7"--7"--8"------|
|-2"--2"--3"--3"--4"--4"--5"--5"------|
|-------------------------------------|

Riff d.
|-------------------------------------|
|-------------------------------------|
|-------------------------------------|
|-----4-----5-----4-----5-----2-3-2-3-|
|-----2-----3-----2-----3-------------|
|--00----00----00----00---00----------|
   ..    ..    ..    ..   ..

Cont.
|-------------------------------------|
|-------------------------------------|
|-------------------------------------|
|-----4-----5-----4-3-----------------|
|-----2-----3-----2-1-4-3-------------|
|-00----00----00------2-1-------------|
  ..   ..   ..


Riff d end.
X4              end.
|-----------|-----------|
|-----------|-----------|
|-----------|-----------|
|--4-3------|-----------|
|--2-1-4-3--|--2--------|
|------2-1--|--0--------|

Riff e.
|-------------------------------------|
|-------------------------------------|
|-------------------------------------|
|---------10"----------10"------------|
|-2"--3"--8"------2"---8"---3"--------|
|-0"--1"----------0"--------1"--------|

Cont.
|-------------------------------------|
|-------------------------------------|
|-------------------------------------|
|---------10"----------5"--4"--3"-----|
|-2"--3"--8"------2"---2"--2"--1"-----|
|-0"--1"----------0"------------------|


Now play riff c

  Visit MetalTabs.com for more metal tablature

bottom separator

Contact Us | Privacy Policy | Disclaimer | Legal Notice
Copyright © 2001-2014 MetalTabs.com. All Rights Reserved.