top separator

Home

Forum

What's New

Submit a Tab

FAQ

Links

Contact Us

Link to Us

MuSpy.com

MetalTabs.com logo

Bands

0-9

A

B

C

D

E

F

G

H

I

J

K

L

M

N

O

P

Q

R

S

T

U

V

W

X

Y

Z

Search

What

Where
 

Soulfly - "Enterfaith" Guitar Tab

Plain Text Version
More Soulfly Tabs

Hits: 3004
Rated: 4.47 out of 5 (15 votes)
Updated: 2006-08-31 09:04:02

 

By:

USS

sendpm.gif

email.gif

Important note
This tab is available online because we obtained explicit permission from Soulfly or their label.


#----------------------------------PLEASE NOTE---------------------------------#
#This file is the author's own work and represents their interpretation of the #
#song. You may only use this file for private study, scholarship, or research. #
#Unless specified otherwise, this is NOT an official tab from the band members.#
#------------------------------------------------------------------------------#

  Visit MetalTabs.com for more metal tablature
  
Band:  Soulfly
Album: III
Song:  Enterfaith

Copyright (c)  Roadrunner Records, 2002
Version 1.0    2000-2002

Note: Tune down one whole step, drop C
D|
A|
F|
C|
G|
C|

Note:
=  let ring
/  slide up
\  slide down
b  one step bend
t  tremolo bar distortion
~  vibrato note

Riff 1:
|-------------|-------------|
|-------------|-------------|
|-------------|-------------|
|-------------|-------------|
|-4=-3=-2=-1=-|-4=-3=-2=-1=-|
|-4=-3=-2=-1=-|-4=-3=-2=-1=-|

Riff 2:
|---------------------|
|---------------------|
|---------------------|
|---------------------|
|-3333-2222-2333-3322-|
|---------------------|

Riff 1 agayn

Riff 3:
|-----------------|-----------------|
|-----------------|-----------------|
|-----------------|-----------------|
|-----------------|-----------------|
|-4\3-3-3-3-3-3-3-|-4\3-3-3-3-0-1-0-|
|-4\3-3-3-3-3-3-3-|-4\3-3-3-3-0-1-0-|

Bit between:
|-20b-.-----------|
|-----------------|
|-----------------|
|-----------------|
|-----------------|
|-----------------|

Percussion fill

Riff 1 agayn
Riff 2 agayn
Riff 1 agayn
Riff 3 agayn

Riff 4:
|----------------|----------------|
|----------------|----------------|
|----------------|----------------|
|-4=--5=--8==----|-4=--5=--8==----|
|-4=--5=--8==----|-4=--5=--8==----|
|-4=--5=--8==----|-4=--5=--8==----|

Riff 5:
|-----------|-----------|
|-----------|-----------|
|-----------|-----------|
|-----------|-----------|
|-2-22-2222-|-2222-7/8=-|
|-2-22-2222-|-2222-7/8=-|

Pre-solo:
|---------|
|---------|
|---------|
|-4=--5=--|
|-4=--5=--|
|-4=--5=--|

Solo (very much tremolo bar distorted):
Part 1
|----------|----------|-----------|----------|
|-/13t-----|-14\13t---|-/15t------|-15t------|
|----------|----------|-----------|----------|
|----------|----------|-----------|----------|
|----------|----------|-----------|----------|
|----------|----------|-----------|----------|

Part 2
|--------15----|------------|------------|-----------|
|-15.----------|------------|------------|-----------|
|-----12----12-|------------|------------|-----------|
|--------------|-.-13t-12t--|-13~-12~----|-----------|
|--------------|------------|---------15-|-13~-12~---|
|--------------|------------|------------|-----------|

Part 3:
|---------|---------|---------|---------|
|---------|---------|---------|---------|
|-8~-7~-5-|---------|---------|---------|
|---------|-8~-7~-5-|----5~---|---------|
|---------|---------|-8~----8-|-6~-8~---|
|---------|---------|---------|---------|

Part 4:
|----------|-----------|------------|-10~t------|
|----------|-----10~---|-----10~-12-|-----------|
|-9~-12~---|-11~-------|-12~--------|-----------|
|----------|-----------|------------|-----------|
|----------|-----------|------------|-----------|
|----------|-----------|------------|-----------|

Riff 5 agayn

All corrections are welcome!

  Visit MetalTabs.com for more metal tablature

bottom separator

Contact Us | Privacy Policy | Disclaimer | Legal Notice
Copyright © 2001-2014 MetalTabs.com. All Rights Reserved.