top separator

Home

Forum

What's New

Submit a Tab

FAQ

Links

Contact Us

Link to Us

MetalTabs.com logo

Bands

0-9

A

B

C

D

E

F

G

H

I

J

K

L

M

N

O

P

Q

R

S

T

U

V

W

X

Y

Z

Search

What

Where
 

Mourning Beloveth - "The Crashing Wave" Guitar Tab

Plain Text Version
More Mourning Beloveth Tabs

Hits: 2118
Rated: 5.00 out of 5 (5 votes)
Updated: 2006-11-07 06:26:25

 

By:

Paddy

sendpm.gif

email.gif

Important note
This tab is available online because we obtained explicit permission from Mourning Beloveth or their label.


#----------------------------------PLEASE NOTE---------------------------------#
#This file is the author's own work and represents their interpretation of the #
#song. You may only use this file for private study, scholarship, or research. #
#Unless specified otherwise, this is NOT an official tab from the band members.#
#------------------------------------------------------------------------------#

  Visit MetalTabs.com for more metal tablature
  
================================================================================
                        M O U R N I N G   B E L O V E T H

                                        -

                        T H E   C R A S H I N G   W A V E
================================================================================


                               A MURDEROUS CIRCUS
                            (c) Grau Records - 2005
                        http://www.mourningbeloveth.com/


                              Tune Down 1 & 1/2 Steps
                                  C# F# B E G# C#

                                 Tempo =  55 BPM
                               Time Signature = 4/4



                          -----------------------------
                                 Transcribed by

                                 PADDY MCMULLAN
                           stinkypoohpants@yahoo.co.uk

                                   Version 1.0
                             -----------------------

                             Tablature Symbols Used:


 P.M...    -  Palm Mute
 p         -  Pull-Off
 h         -  Hammer-On
 (/)       -  Legato Slide (Blank space indicates length of slide)
 \         -  Slide Down to/Down From (Blank space indicates length of slide)
 /         -  Slide Up To/Up From (Blank space indicates length of slide)
 ( )       -  Ghost Note/Tied Note/Implied Note
 ~~        -  Vibrato
 |_3_|     -  Triplet Notes



================================================================================
Riff 1: Guitars 1 & 2 with heavy distortion (Play twice)
================================================================================


  1                    2                    3
||--------------------|--------------------|--------------------|
||--------------------|--------------------|--------------------|
||--------------------|--------------------|--------------------|
||--------------------|--------------------|--------------------|
||--2--------1--------|--------------------|--2--------1--------|
||--------------------|--2--------3--------|--------------------|

 4                    5                    6
|--------------------|--------------------|--------------------|
|--------------------|--------------------|--------------------|
|--------------------|--------------------|--------------------|
|--------------------|--------------------|--------------------|
|--------------------|--2--------1--------|--------------------|
|--2--------3--------|--------------------|--2--------3--------|

 7                    8                      9*
|--------------------|---------------------||--------------------|
|--------------------|---------------------||--------------------|
|--------------------|---------------------||--------------------|
|--------------------|---------------------||--------------------|
|--2--------1--------|------------------4--||--2--------2--------|
|--------------------|--2--------3------2--||--------------------|
                                       P.M

 10                        11                   12
|-------------------------|--------------------|---------------------|
|-------------------------|--------------------|---------------------|
|-------------------------|--------------------|---------------------|
|----------------------2--|--------------------|---------------------|
|--2--------2h 3-------0--|--------------------|------------------4--|
|-------------------------|--3--------3--------|--3--------3------2--|
                      ...                                        ...

 13                   14                        15
|--------------------|-------------------------|--------------------|
|--------------------|-------------------------|--------------------|
|--------------------|-------------------------|--------------------|
|--------------------|----------------------2--|--------------------|
|--2--------2--------|--2--------2h 3-------0--|--------------------|
|--------------------|-------------------------|--3--------3--------|
                                           ...

 16                    17*                  18
|--------------------||--------------------|--------------------|
|--------------------||--------------------|--------------------|
|--------------------||--------------------|--------------------|
|--------------------||--4--------4--------|--2--------2--------|
|--------------------||--4--------4--------|--2--------2--------|
|--3--------3--------||--2--------2--------|--0--------0--------|

 19                    20                  21
|---------------------|-------------------|-------------------|
|---------------------|-------------------|-------------------|
|---------------------|-------------------|-------------------|
|--5--------5------5--|--5----------------|--4----------------|
|--5--------5------5--|--5----------------|--4----------------|
|--3--------3------3--|--3----------------|--2----------------|

 22                    23                   24
|---------------------|--------------------|-------------------| |
|---------------------|--------------------|-------------------| |
|---------------------|--------------------|-------------------|*|
|--2------------------|--5-------(5)-------|--5----------------|*|
|--2---------------2--|--5--------5--------|-(5)---------------| |
|--0---------------0--|--3-------(3)-------|-(3)---------------| |
                  ...



Guitar 2 enters on bar 3



* Tempo increases to 60 BPM on bar 9
* Tempo increases to 64 BPM on bar 17
* On the second repeat, the tempo increases to 66 BPM on bar 1
* On the second repeat, the tempo increases to 70 BPM on bar 17



================================================================================
Riff 2: Guitar 3 with clean tone (Play 4 times)
================================================================================


* Let notes ring wherever possible *


  1                          2
||--------------------------|--------------------------|
||--------------------------|--------------------------|
||--------------------------|--------------------------|
||--------0-----------0-----|--------0-----------0-----|
||-----9-----9-----9-----9--|-----9-----9-----9-----9--|
||--7-----------7-----------|--7-----------7-----------|

 3                            4
|----------------------------|----------------------------|
|----------------------------|----------------------------|
|----------------------------|----------------------------|
|---------0------------0-----|---------0------------0-----|
|------9-----9------9-----9--|------9-----9------9-----9--|
|--10-----------10-----------|--10-----------10-----------|

 5                          6
|--------------------------|--------------------------|
|--------------------------|--------------------------|
|--------------------------|--------------------------|
|--------0-----------0-----|--------0-----------0-----|
|-----5-----5-----5-----5--|-----5-----5-----5-----5--|
|--7-----------7-----------|--3-----------3-----------|

 7                          8
|--------------------------|--------------------------| |
|--------------------------|--------------------------| |
|--------------------------|--------------------------|*|
|--------0-----------0-----|--------0-----------0-----|*|
|-----5-----5-----5-----5--|-----7-----7-----7-----7--| |
|--7-----------7-----------|--5-----------5-----------| |



On the last repeat, replace the last bar with the following:



|--------------------------||
|--------------------------||
|--------------------------||
|--------0-----------------||
|-----7-----7--------------||
|--5-----------5-----------||



================================================================================
Lead Riff 1: Guitar 4 with heavy distortion (Play once through)
================================================================================


  1                      2                      3
||----------------------|----------------------|---------------------|
||----------------------|----------------------|---------------------|
||----------------------|----------------------|---------------------|
||--7--9----4-----------|--(4)-------------2-2-|--2--4---------------|
||----------------------|----------------------|---------------------|
||----------------------|----------------------|---------------------|

 4                      5                        6
|----------------------|------------------------|--------------------------|
|----------------------|------------------------|--------------------------|
|----------------------|------------------------|--------------------------|
|--(4)-----------(4) / | -7--9--(9)\4-----------|-----4----4h 5-----4------|
|----------------------|------------------------|--5-----------------------|
|----------------------|------------------------|--------------------------|

 7                        8                        9
|------------------------|------------------------|---------------------|
|------------------------|------------------------|---------------------|
|------------------------|------------------------|---------------------|
|------------------------|------------------------|---------------------|
|--5----------(5/7)---5--|--4----(4)\ 2--0--------|--0--2------2--------|
|------------------------|------------------------|---------------------|

 10                     11
|----------------------|------------------------------|
|----------------------|------------------------------|
|----------------------|------------------------------|
|----------------------|------------------------------|
|--(2)---------5----7--|--7--9------9-------9h-10-10--|
|----------------------|------------------------------|

12 |___3__|  |__3__|  |__3__|               13
|------------------------------------------|----------------------|
|------------------------------------------|----------------------|
|------------------------------------------|----------------------|
|------------------------------------------|----------------------|
|--10--9--9--9--7--5--7--5--4--5-4h 5p 4-0-|--2-----------4----5--|
|------------------------------------------|----------------------|

 14                    15                    |__3__|
|---------------------|------------------------------|
|---------------------|------------------------------|
|--------------7------|------------------------------|
|--5------------------|------------------------------|
|---------------------|--5----------(5/7)--5-5h 7p 5-|
|---------------------|------------------------------|

 16                       17                    18
|------------------------|---------------------|-------------------------|
|------------------------|---------------------|-------------------------|
|------------------------|--2--4---------------|--(4)---------7----7h 9--|
|------------------------|---------------------|-------------------------|
|--4----(4)\ 2--0--------|---------------------|-------------------------|
|------------------------|---------------------|-------------------------|

 19                         20 |__3__|  |__3__|  |__3__|  |____3__|
|---------------------------|----------------------------------------|
|---------------------------|----------------------------------------|
|--7------------------------|----------------------------------------|
|------------------5h 7--7--|--7--5--5--5--4--2--4--2----------------|
|---------------------------|--------------------------4--4h 5-4--0--|
|---------------------------|----------------------------------------|

 21                     22
|----------------------|-------------------------|
|----------------------|-------------------------|
|----------------------|-------------------------|
|----------------------|--5-----------5h 7-------|
|--2-----------4----5--|-------------------------|
|----------------------|-------------------------|

 23                    |__3__|  24
|------------------------------|------------------------|
|------------------------------|------------------------|
|------------------------------|------------------------|
|------------------------------|------------------------|
|--5----------(5/7)--5-5h 7p 5-|--4----(4)\ 2--0--------|
|------------------------------|------------------------|

 25                     26                     27
|----------------------|----------------------|----------------------|
|----------------------|----------------------|----------------------|
|----------------------|----------------------|----------------------|
|--7--9----4-----------|--(4)-------------2-2-|--2--4----4--------4--|
|----------------------|----------------------|----------------------|
|----------------------|----------------------|----------------------|

 28                       29                       30
|------------------------|------------------------|----------------------|
|------------------------|------------------------|----------------------|
|------------------------|------------------------|---------------7------|
|--4------4--4------(4) /| -7--9---(9)\4----------|-----4----5-----------|
|------------------------|------------------------|--5-------------------|
|------------------------|------------------------|----------------------|

 31                       32
|------------------------|------------------------||
|------------------------|------------------------||
|------------------------|------------------------||
|------------------------|------------------------||
|--5----------(5/7)---5--|--4----(4)\ 2--0--------||
|------------------------|------------------------||



================================================================================
Riff 3: Guitars 1 & 2 (Play 4 times)
================================================================================


 1 |_3__|  |__3__|  |__3__|  |__3__|  |__3__|  |__3__|  |__3__|  |__3__|
||-----------------------------------------------------------------------|
||-R   ------------------------------------------------------------------|
||-E   ------------------------------------------------------------------|
||-S   -4--4--4--4--4--3--3--3--3--3--3----------------------------------|
||-T   -2--2--2--2--2--1--1--1--1--1--1--4--4--4--4--4--4--5--5--5--5--5-|
||---------------------------------------2--2--2--2--2--2--3--3--3--3--3-|
        ................................................................


2 |_3__|  |__3__|  |__3__|  |__3__|  |__3__|  |__3__|  |__3__|  |__3__|
|------------------------------------------------------------------------|
|-R   -------------------------------------------------------------------|
|-E   -------------------------------------------------------------------|
|-S   -4--4--4--4--4--3--3--3--3--3--3-----------------------------------|
|-T   -2--2--2--2--2--1--1--1--1--1--1--4--4--4--4--4--4--5--5--5--5--5--|
|---------------------------------------2--2--2--2--2--2--3--3--3--3--3--|
       ................................................................


3 |_3__|  |__3__|  |__3__|  |__3__|  |__3__|  |__3__|  |__3__|  |__3__|
|------------------------------------------------------------------------|
|-R   -------------------------------------------------------------------|
|-E   -------------------------------------------------------------------|
|-S   -4--4--4--4--4--3--3--3--3--3--3-----------------------------------|
|-T   -2--2--2--2--2--1--1--1--1--1--1--4--4--4--4--4--4--5--5--5--5--5--|
|---------------------------------------2--2--2--2--2--2--3--3--3--3--3--|
       ................................................................


4 |_3__|  |__3__|  |__3__|  |__3__|  |__3__|  |__3__|  |__3__|  |__3__|
|------------------------------------------------------------------------|
|-R   -------------------------------------------------------------------|
|-E   -------------------------------------------------------------------|
|-S   -4--4--4--4--4--3--3--3--3--3--3-----------------------------------|
|-T   -2--2--2--2--2--1--1--1--1--1--1--4--4--4--4--4--4--5--5--5--5--5--|
|---------------------------------------2--2--2--2--2--2--3--3--3--3--3--|
       ................................................................


5  |__3__|  |__3__|  |__3__|  |__3__|  |__3__|  |__3__|  |__3__|  |__3__|
|--------------------------------------------------------------------------|
|--------------------------------------------------------------------------|
|--------------------------------------------------------------------------|
|--4--4--4--4--4--4--4--4--4--4--4--4--4--4--4--4--4--4--4--4--5--5--------|
|--2--2--2--2--2--2--2--2--2--2--2--2--2--2--2--2--2--2--2--2--3--3--7--7--|
|--------------------------------------------------------------------5--5--|
   ......................................................................


6  |__3__|  |__3__|  |__3__|  |__3__|  |__3__|  |__3__|  |__3__|  |__3__|
|--------------------------------------------------------------------------|
|--------------------------------------------------------------------------|
|--------------------------------------------------------------------------|
|--------------------------------------------------------------------------|
|--7--5--5--5--5--5--5--5--5--5--5--5--5--5--5--5--5--5--5--5--5--5--5-----|
|--5--3--3--3--3--3--3--3--3--3--3--3--3--3--3--3--3--3--3--3--3--3--3--0--|
   ......................................................................


7  |__3__|  |__3__|  |__3__|  |__3__|  |__3__|  |__3__|  |__3__|  |__3__|
|--------------------------------------------------------------------------|
|--------------------------------------------------------------------------|
|--------------------------------------------------------------------------|
|--4--4--4--4--4--4--4--4--4--4--4--4--4--4--4--4--4--4--4--4--5--5--------|
|--2--2--2--2--2--2--2--2--2--2--2--2--2--2--2--2--2--2--2--2--3--3--7--7--|
|--------------------------------------------------------------------5--5--|
   ......................................................................


8  |__3__|  |__3__|  |__3__|  |__3__|  |__3__|  |__3__|  |__3__|  |__3__|
|--------------------------------------------------------------------------|
|--------------------------------------------------------------------------|
|--------------------------------------------------------------------------|
|--------------------------------------------------------------------------|
|--7--5--5--5--5--5--5--5--5--5--5--5--5--5--5--5--5--5--5--5--5--5--5-----|
|--5--3--3--3--3--3--3--3--3--3--3--3--3--3--3--3--3--3--3--3--3--3--3--0--|
   ......................................................................


9  |__3__|  |__3__|  |__3__|  |__3__|  |__3__|  |__3__|  |__3__|  |__3__|
|--------------------------------------------------------------------------|
|--------------------------------------------------------------------------|
|--------------------------------------------------------------------------|
|--------------------------------------------------------------------------|
|--4--4--4--4--4--4--4--4--4--4--4--4--2--2--2--2--2--2--2--2--2--2--2--2--|
|--2--2--2--2--2--2--2--2--2--2--2--2--0--0--0--0--0--0--0--0--0--0--0--0--|
   ......................................................................


10 |__3__|  |__3__|  |__3__|  |__3__|  |__3__|  |__3__|  |__3__|  |__3__|
|--------------------------------------------------------------------------|
|--------------------------------------------------------------------------|
|--------------------------------------------------------------------------|
|--------------------------------------------------------------------------|
|--5--5--5--5--5--5--5--5--5--5--5--5--5--5--5--5--5--5--5--5--5--5--5-----|
|--3--3--3--3--3--3--3--3--3--3--3--3--3--3--3--3--3--3--3--3--3--3--3--0--|
   ......................................................................


11 |__3__|  |__3__|  |__3__|  |__3__|  |__3__|  |__3__|  |__3__|  |__3__|
|--------------------------------------------------------------------------|
|--------------------------------------------------------------------------|
|--------------------------------------------------------------------------|
|--------------------------------------------------------------------------|
|--4--4--4--4--4--4--4--4--4--4--4--4--2--2--2--2--2--2--2--2--2--2--2--2--|
|--2--2--2--2--2--2--2--2--2--2--2--2--0--0--0--0--0--0--0--0--0--0--0--0--|
   ......................................................................


12 |__3__|  |__3__|  |__3__|  |__3__|  |__3__|  |__3__|  |__3__|  |__3__|
|--------------------------------------------------------------------------| |
|--------------------------------------------------------------------------| |
|--------------------------------------------------------------------------|*|
|--------------------------------------------------------------------------|*|
|--5--5--5--5--5--5--5--5--5--5--5--5--5--5--5--5--5--5--5--5--5--5--5--5--| |
|--3--3--3--3--3--3--3--3--3--3--3--3--3--3--3--3--3--3--3--3--3--3--3--3--| |
   ......................................................................



================================================================================
Riff 4: Guitar 1 & 2 (Play 12 times)
================================================================================


||----------------------|----------------------------| |
||----------------------|----------------------------| |
||----------------------|----------------------------|*|
||--2-------------------|-----------2--2--2--0--5----|*|
||--2--------2---2---0--|--0h 2h 3--3--3--3--3--3----| |
||--0-------------------|----------------------------| |
                                    ..........


On the 2nd, 4th, 6th, 8th, 10th and 12th repeats, guitar 2 replaces the last
powerchord of the riff with the following:



|-------|
|-------|
|-------|
|--2----|
|--3----|
|-------|



On the 4th, 8th and 12th repeats both guitars add the following triplet to the
riff:



           |__3__|
||-----------------------------|----------------------------|
||-----------------------------|----------------------------|
||-----------------------------|----------------------------|
||--2--------------------------|-----------2--2--2--0--5----|
||--2---------------2---2---0--|--0h 2h 3--3--3--3--3--3----|
||--0------0--0--0-------------|----------------------------|
           .......                         ..........



================================================================================
Riff 5a: Guitar 1 (Play twice)
================================================================================


  1                     2                         3
||---------------------|-------------------------|-------------------|
||---------------------|-------------------------|-------------------|
||---------------------|-------------------------|-------------------|
||--2------2--2--------|-(2)-3--3--3--3----5--2--|--2----------------|
||--0-----(0)(0)-------|-(0)---------------------|-------------------|
||---------------------|-------------------------|-------------------|

 4                             5
|-----------------------------|-------------------|
|-----------------------------|-------------------|
|-----------------------------|-------------------|
|-(2)----------------------2--|--2----------------|
|-----3--3--3--2---3p 2----0--|--0----------------|
|-----------------------3-----|-------------------|

 6                         7                    8
|-------------------------|--------------------|-------------------------|
|-------------------------|--------------------|-------------------------|
|-------------------------|--------------------|-------------------------|
|-(2)---------------------|--3-----------------|--2----0-----------------|
|-(0)-0--2--3--5--3--2----|-----------3--------|----------2--------0--0--|
|-------------------------|--------------------|-------------------------|
      ....                                                         ....

 9                    10                        11
|--------------------|-------------------------|-------------------|
|--------------------|-------------------------|-------------------|
|--------------------|-------------------------|-------------------|
|--2--------2--------|-(2)-3--3--3--3----5--2--|--2----------------|
|--0-------(0)-------|-(0)------------------0--|--0----------------|
|--------------------|-------------------------|-------------------|

 12                            13
|-----------------------------|-------------------|
|-----------------------------|-------------------|
|-----------------------------|-------------------|
|-(2)----------------------2--|--2----------------|
|-(0)-3--3--3--2---3p 2----0--|--0----------------|
|-----------------------3-----|-------------------|

 14                        15
|-------------------------|------------------------|
|-------------------------|------------------------|
|-------------------------|------------------------|
|-(2)---------------------|--3------((3)/7)--------|
|-(0)-0--2--3--5--3--2----|------------------------|
|-------------------------|------------------------|
      ....

 16
|-----------------------------| |
|-----------------------------| |
|-----------------------------|*|
|--5----(7/10)-9--------------|*|
|-----------------------0--0--| |
|-----------------------------| |
                        .....



On the last repeat, the last 2 notes of bar 16 are not played



================================================================================
Riff 5b: Guitar 2 (Play 4 times)
================================================================================


  1                     2                         3
||---------------------|-------------------------|-------------------|
||---------------------|-------------------------|-------------------|
||---------------------|-------------------------|-------------------|
||--2------2--2--------|-(2)-3--3--3--3----5--2--|--2----------------|
||--0-----(0)(0)-------|-(0)---------------------|-------------------|
||---------------------|-------------------------|-------------------|

 4                             5
|-----------------------------|-------------------|
|-----------------------------|-------------------|
|-----------------------------|-------------------|
|-(2)----------------------2--|--2----------------|
|-----3--3--3--2---3p 2----0--|--0----------------|
|-----------------------3-----|-------------------|

 6                         7                    8
|-------------------------|--------------------|-------------------------|
|-------------------------|--------------------|-------------------------|
|-------------------------|--------------------|-------------------------|
|-(2)---------------------|--3-----------------|--2----0-----------------|
|-(0)-0--2--3--5--3--2----|-----------3--------|----------2--------0--0--|
|-------------------------|--------------------|-------------------------|
      ....                                                         ....



================================================================================
Riff 6: Guitars 1 & 2 (Play 3 times) [ Tempo = 54 BPM ]
================================================================================


  1                    2
||--------------------|----------------------|
||--------------------|----------------------|
||--------------------|----------------------|
||--------------------|----------------------|
||--3--------3--------|--3--------5--------3-|
||--------------------|----------------------|

 3                           4                      5
|---------------------------|---------------------||------------------------|
|---------------------------|---------------------||------------------------|
|---------------------------|---------------------||------------------------|
|---------------------------|---------------------||------------------------|
|--3--2---2-----------2--0--|--2--------5----4----||--3--------3------3--2--|
|---------------------------|-----------3----2----||------------------------|
                      ....                                            ....
 6                      7                           8
|----------------------|---------------------------|---------------------| |
|----------------------|---------------------------|---------------------| |
|----------------------|---------------------------|---------------------|*|
|----------------------|---------------------------|---------------------|*|
|--3--------5--------3-|--3--2---2-----------2--0--|--2--------5----4----| |
|----------------------|---------------------------|-----------3----2----| |
                                             ....



On the last repeat, replace the last bar with the following:



||------------------------||
||--------------------R  -||
||--------------------E  -||
||--------------------S  -||
||--2------------5--4-T  -||
||---------------3--2-----||
                 ....



================================================================================
Riff 7a: Guitar 1 (Play once through) [ Tempo = 58 BPM ]
================================================================================


  1                 |__3__|  |__3__|   2
||------------------------------------|-----------------------------|
||------------------------------------|-----------------------------|
||------------------------------------|-----------------------------|
||--2---------------------------------|-----------------------------|
||--2------(5/7)--7-7--5--5--5--0--2--|--2h 3--------------5--4-----|
||--0---------------------------------|--------------------3--2-----|
                                                           ....
 3                 |__3__|  |__3_____|  4
|--------------------------------------|-----------------------|
|--------------------------------------|-----------------------|
|--------------------------------------|-----------------------|
|--2------(4/5)--5-5--4--4--4--2--0h 2-|--2------------4-5-(5)\|
|--2-----------------------------------|-----------------------|
|--0-----------------------------------|-----------------------|

 5              |__3__|  |__3__|   6
|---------------------------------|--------------------------------------|
|---------------------------------|--------------------------------------|
|---------------------------------|--------------------------------------|
|--2------(2/9)-9--9--9--9--7--9--|--(9/10)---5h 7-5~~-----(5)\----------|
|--2------------------------------|-----------------------------5--4-----|
|--0------------------------------|-----------------------------3--2-----|
                                                                ....

 7                 |__3__|  |__3__|
|------------------------------------|
|------------------------------------|
|------------------------------------| [ From this bar on, the tempo = 62 BPM ]
|--2---------------------------------|
|--2------(5/7)--7-7--5--5--5--0--2--|
|--0---------------------------------|


 8        |__3__|     |__3___|
|--------------------------------------------|
|--------------------------------------------|
|--------------------------------------------|
|-------5-4h 5p 4---7-7h 9p (7\5)p0----------|
|--3--0-----------5-----------------5--4-----|
|-----------------------------------3--2-----|
                                    ....

 9                 |__3__|  |__3_____|  10
|--------------------------------------|-----------------------|
|--------------------------------------|-----------------------|
|--------------------------------------|-----------------------|
|--2------(4/5)--5-5--4--4--4--2--0h 2-|--2------------4-5-(5)\|
|--2-----------------------------------|-----------------------|
|--0-----------------------------------|-----------------------|

 11             |__3__|  |__3__|   12
|---------------------------------|--------------------------------------|
|---------------------------------|--------------------------------------|
|---------------------------------|--------------------------------------|
|--2------(2/9)-9--9--9--9--7--9--|--(9/10)---5h 7-5~~-----(5)\----------|
|--2------------------------------|-----------------------------5--4-----|
|--0------------------------------|-----------------------------3--2-----|
                                                                ....

 13                |__3__|  |__3__|   14
|------------------------------------|-----------------------------|
|------------------------------------|-----------------------------|
|------------------------------------|-----------------------------|
|--2---------------------------------|-----------------------------|
|--2------(5/7)--7-7--5--5--5--0--2--|--2h 3--------------5--4-----|
|--0---------------------------------|--------------------3--2-----|
                                                           ....

 15                |__3__|  |__3_____|  16
|--------------------------------------|-----------------------|
|--------------------------------------|-----------------------|
|--------------------------------------|-----------------------|
|--2------(4/5)--5-5--4--4--4--2--0h 2-|--2------------4-5-(5)\|
|--2-----------------------------------|-----------------------|
|--0-----------------------------------|-----------------------|


 17             |__3__|  |__3__|   18
|---------------------------------|--------------------------------------|
|---------------------------------|--------------------------------------|
|---------------------------------|--------------------------------------|
|--2------(2/9)-9--9--9--9--7--9--|--(9/10)---5h 7-5~~-----(5)\----------|
|--2------------------------------|-----------------------------5--4-----|
|--0------------------------------|-----------------------------3--2-----|
                                                                ....

 19                |__3__|  |__3__|
|------------------------------------|
|------------------------------------|
|------------------------------------|
|--2---------------------------------|
|--2------(5/7)--7-7--5--5--5--0--2--|
|--0---------------------------------|


 20       |__3__|     |__3___|
|--------------------------------------------||
|--------------------------------------------||
|--------------------------------------------||
|-------5-4h 5p 4---7-7h 9p (7\5)p0----------||
|--3--0-----------5-----------------5--4-----||
|-----------------------------------3--2-----||
                                    ....



================================================================================
Riff 7b: Guitar 2 (Play 3 times)
================================================================================


  1                 |__3__|  |__3__|   2
||------------------------------------|-----------------------------|
||------------------------------------|-----------------------------|
||------------------------------------|-----------------------------|
||--2---------------------------------|-----------------------------|
||--2------(5/7)--7-7--5--5--5--0--2--|--2h 3--------------5--4-----|
||--0---------------------------------|--------------------3--2-----|
                                                           ....


  3                |__3__|  |__3__|   4
|------------------------------------|-----------------------------|
|------------------------------------|-----------------------------|
|------------------------------------|-----------------------------|
|--2---------------------------------|-----------------------------|
|--2------(5/7)--7-7--5--5--5--0--2--|--2h 3--------------5--4-----|
|--0---------------------------------|--------------------3--2-----|
                                                          ....

 5              |__3__|  |__3__|   6
|---------------------------------|-----------------------------| |
|---------------------------------|-----------------------------| |
|---------------------------------|-----------------------------|*|
|--2------(2/5)-5--4--4--4--2--0--|--0h-2--------(2)------------|*|
|--2------------------------------|--------------------5--4-----| |
|--0------------------------------|--------------------3--2-----| |
                                                       ....



After all of the repeats, end by playing the first 2 bars of the riff once more



================================================================================
End
================================================================================


Tab summary:        Riff 1 x 2
                    Riff 2 x 4 + Lead Riff 1 x 1
                    Riff 3 x 4
                    Riff 4 x 12
                    Riff 5a x 2 + Riff 5b x 4
                    Riff 6 x 3
                    Riff 7a x 1 + Riff 7b x 3

                    END

  Visit MetalTabs.com for more metal tablature

bottom separator

Contact Us | Privacy Policy | Disclaimer | Legal Notice
Copyright © 2001-2014 MetalTabs.com. All Rights Reserved.