top separator

Home

Forum

FAQ

Contact Us

Link to Us

MetalTabs.com logo

Bands

0-9

A

B

C

D

E

F

G

H

I

J

K

L

M

N

O

P

Q

R

S

T

U

V

W

X

Y

Z

Misery Index - "Unmarked Graves" Guitar Tab

Plain Text Version
More Misery Index Tabs

Hits: 1822
Rated: 4.00 out of 5 (1 vote)
Updated: 2006-09-06 23:37:43

By:

UnstatisfiedDesire


#----------------------------------PLEASE NOTE---------------------------------#
#This file is the author's own work and represents their interpretation of the #
#song. You may only use this file for private study, scholarship, or research. #
#Unless specified otherwise, this is NOT an official tab from the band members.#
#------------------------------------------------------------------------------#

  Visit MetalTabs.com for more metal tablature
  
band: Misery Index
song: Unmarked Graves
album: Discordia

Copyright   (Relapse Records) (2006)

Tabbed by: Nick ( nick23_363@hotmail.com )

Tuning is in C#: C# F# B E G# C#

,  - slight palm mute
.  - palm mute
 \ - slide down to
 / - slide up to
h  - hammer on
p  - pull off
t  - tap
ph - pinched harmonic
*  - see comment
() - ghost note,
"  - tremolo note
<> - Trill
b  - Bend
~  - vibrato
=  - sustained note



	Intro
|-----------------|
|-----------------|
|-----------------|
|----4------------|
|-2--2--2--3-2-3--|
|-0-----0--1-0-1--|


	Riff 1
|-----------------------------|
|-----------------------------|
|-----------------------------|
|-----------------------------|
|---------------5-8---4-7-4-3-|
|-0-3-5-0-5-7-0-----0---------|
(      tremolo picked         )




|----------------------------|
|----------------------------|
|----------------------------|
|----------------------------|
|---------------5-8----2-4-5-|
|-0-3-5-0-5-7-0-----0--0-2-3-|
(   tremolo picked  )



|-----------------------------|
|-----------------------------|
|-----------------------------|
|-----------------------------|
|---------------5-8---4-7-4-3-|
|-0-3-5-0-5-7-0-----0---------|
(      tremolo picked         )




|---------------------------|
|---------------------------|
|---------------------------|
|---------------------------|
|--------------5-8----2-4-5-|
|-0-3-5-0-5-7-0----0--0-2-3-|
(   tremolo picked  )



	riff 2                                riff 1 & 2 are played together twice
|---------------------------|
|---------------------------|
|---------------------------|
|---------------------------|
|-------------3-6-----------|
|-0-6-3-5-2-0-----1-3-4-3-1-|
(      tremolo picked       )



|--------------------------|
|--------------------------|
|--------------------------|
|--------------------------|
|-------------3-6--3-5-6-3-|
|-0-6-3-5-2-0------1-3-4-1-|
( tremolo picked )




|---------------------------|
|---------------------------|
|---------------------------|
|---------------------------|
|-------------3-6-----------|
|-0-6-3-5-2-0-----1-3-4-3-1-|
(      tremolo picked       )



|--------------------------|
|--------------------------|
|--------------------------|
|--------------------------|
|-------------3-6--3-5-6-3-|
|-0-6-3-5-2-0------1-3-4-1-|
( tremolo picked )



	End of riff 1 & 2
|-----------------|
|-----------------|
|-----------------|
|----4------------|
|-2--2--2--3-2-3--|
|-0-----0--1-0-1--|



	riff 3
|---------------------------------------|
|---------------------------------------|
|---------------------------------------|
|-4--------4--------5--------5----7-5-4-|
|-2--------2--------3--------3----5-3-2-|
|---210121---210121---210121---00-------|
    ......   ......   ......   ..




|---------------------------------------|
|---------------------------------------|
|---------------------------------------|
|-4--------4--------5--------5----5-7-4-|
|-2--------2--------3--------3----3-5-2-|
|---210121---210121---210121---00-------|
    ......   ......   ......   ..




|---------------------------------------|
|---------------------------------------|
|---------------------------------------|
|-4--------4--------5--------5----7-5-4-|
|-2--------2--------3--------3----5-3-2-|
|---210121---210121---210121---00-------|
    ......   ......   ......   ..



|--------------------------------------------------|
|--------------------------------------------------|
|--------------------------------------------------|
|-4-------4-------5-------5----5-7-------5---5-4-5-|
|-2-------2-------3-------3----3-5-4---4-3---3-2-3-|
|---21012---21012---21012---00-----2---2-----------|
    .....   .....   .....   ..



	riff 4
|---------------------------------------------------|
|---------------------------------------------------|
|---------------------------------------------------|
|-------------4-----7-----------------4-------------|
|-2-----5-----2-----5-----2-----5-----2-----7/8-7/8-|
|-0-000-3-000---000---000-0-000-3-000---000-5/6-5/6-|
    ...   ...   ...   ...   ...   ...   ...




|-------------------------------------------------|
|-------------------------------------------------|
|-------------------------------------------------|
|-------------4-----7-----------------------------|
|-2-----5-----2-----5-----7/8\7\6/7\6\5/6\3\4/5\4-|
|-0-000-3-000---000---000-5/6\5\4/5\4\3/4\5\2/3\2-|
    ...   ...   ...   ...




|-----------------------------------------------------|
|-----------------------------------------------------|
|-----------------------------------------------------|
|-------------4-----7-----------------4-----9/10-9/10-|
|-2-----5-----2-----5-----2-----5-----2-----7/8--7/8--|
|-0-000-3-000---000---000-0-000-3-000---000-----------|
    ...   ...   ...   ...   ...   ...   ...



|---------------------------------------|
|---------------------------------------|
|---------------------------------------|
|-------------4-----7-----5---5-7-------|
|-2-----5-----2-----5-----3---3-5---5-4-|
|-0-000-3-000---000---000-----------3-2-|
    ...   ...   ...   ...


	riff 5
|-----------------------------------------------|
|-----------------------------------------------|
|-----------------------------------------------|
|-4-----------------------4---------------------|
|-2-----2-----5-----3-----2-----2-----5-----3/5-|
|---000-0-000-3-000-1-000---000-0-000-3-000-1/3-|
    ...   ...   ...   ...   ...   ...   ...



|-------------------------------------------------|
|-------------------------------------------------|
|-------------------------------------------------|
|-4-----------------------------------------------|
|-2-----2-----5-----3-----7/8\7\6/7\6\5/6\3\4/5\4-|
|---000-0-000-3-000-1-000-5/6\5\4/5\4\3/4\5\2/3\2-|
    ...   ...   ...   ...



|-----------------------------------------------|
|-----------------------------------------------|
|-----------------------------------------------|
|-4-----------------------4---------------------|
|-2-----2-----5-----3-----2-----2-----5-----3/5-|
|---000-0-000-3-000-1-000---000-0-000-3-000-1/3-|
    ...   ...   ...   ...   ...   ...   ...


|---------------------------------------|
|---------------------------------------|
|---------------------------------------|
|-4-----------------------5---5-7-------|
|-2-----2-----5-----3-----3---3-5---5-4-|
|---000-0-000-3-000-1-000-----------3-2-|
    ...   ...   ...   ...


	riff 6

(       not sure about this one...      )
|----------------------------------------------------|
|----------------------------------------------------|
|----------------------------------------------------|
|-------------------7--------------------------------|
|-2-----3-----5-----5-----2-----3-----5-----6/7--6/7-|
|-0-000-1-000-3-000---000-0-000-1-000-3-000-4/5--4/5-|
    ...   ...   ...   ...   ...   ...   ...




|-------------------------------------------------|
|-------------------------------------------------|
|-------------------------------------------------|
|-------------------7-----------------------------|
|-2-----3-----5-----5-----7/8\7\6/7\6\5/6\3\4/5\4-|
|-0-000-1-000-3-000---000-5/6\5\4/5\4\3/4\5\2/3\2-|
    ...   ...   ...   ...



|-----------------------------------------------------|
|-----------------------------------------------------|
|-----------------------------------------------------|
|-------------------7-----------------------9/10-9/10-|
|-2-----3-----5-----5-----2-----3-----5-----7/8--7/8--|
|-0-000-1-000-3-000---000-0-000-1-000-3-000-----------|
    ...   ...   ...   ...   ...   ...   ...



|---------------------------------------|
|---------------------------------------|
|---------------------------------------|
|-------------------7-----5---5-7-------|
|-2-----3-----5-----5-----3---3-5---5-4-|
|-0-000-1-000-3-000---000-----------3-2-|
    ...   ...   ...   ...           . .


	riff 7

* this is either with Hammer on / pull off or with power chords
|------------------------------|
|------------------------------|
|------------------------------|
|------------------5-----4-----|
|----2"-7"--7p5h7*-3---5-2-5-4-|
|-0"-------------------3---3-2-|


*same thing as above
|-------------------------------|
|-------------------------------|
|-------------------------------|
|--------------------5---7------|
|----2"-7"--8p7p5h7*-3---5--5-4-|
|-0"------------------------3-2-|



*and again
|-----------------------------|
|-----------------------------|
|-----------------------------|
|-----------------5-----4-----|
|----2"-7"-7p5h7*-3---5-2-5-4-|
|-0"------------------3---3-2-|



*last one
|-----------------|
|-----------------|
|-----------------|
|-----------------|
|----2"-7"-3p2h3*-|
|-0"--------------|



	back to riff 3

gtr. 1
|------------------------------------|
|------------------------------------|
|------------------------------------|
|-4-------4-------5-------5----7-5-4-|
|-2-------2-------3-------3----5-3-2-|
|------------------------------------|
|
|
|
|gtr. 2
|---------------------------------------|
|---------------------------------------|
|---------------------------------------|
|-4--------4--------5--------5----7-5-4-|
|-2--------2--------3--------3----5-3-2-|
|---210121---210121---210121---00-------|
    ......   ......   ......   ..




|---------------------------------------|
|---------------------------------------|
|---------------------------------------|
|-4--------4--------5--------5----5-7-4-|
|-2--------2--------3--------3----3-5-2-|
|---210121---210121---210121---00-------|
    ......   ......   ......   ..




|---------------------------------------|
|---------------------------------------|
|---------------------------------------|
|-4--------4--------5--------5----7-5-4-|
|-2--------2--------3--------3----5-3-2-|
|---210121---210121--210121---00--------|
    ......   ......  ......   ..




|---------------------------------------------------------|
|---------------------------------------------------------|
|---------------------------------------------------------|
|-4--------4--------5--------5----5-7--------4--5---5-4-5-|
|-2--------2--------3--------3----3-5--4---4-2--3---3-2-3-|
|---210121---210121---210121---00------2---2--------------|
    ......   ......   ......   ..



	Breakdown
|--------------------------------------------------------------------|
|--------------------------------------------------------------------|
|--------------------------------------------------------------------|
|--------------------------------------------------------------------|
|-2=====---22222-2=====---22222-2===---2222-22222-2===-222-222-2-4-5-|
|-0=====---00000-0=====---00000-0===---0000-00000-0===-000-000-0-2-3-|
  .        ..... .        ..... .      .... ..... .    ... ...


	riff 2 with power chords
|-----------------------------|
|-----------------------------|
|-----------------------------|
|---------------5-8-----------|
|---8-5---7-4---3-6-3-5-6-5-3-|
|-0-6-3-0-5-2-0-----1-3-4-3-1-|




|---------------------------|
|---------------------------|
|---------------------------|
|---------------5-8---------|
|---8-5---7-4---3-6-3-5-6-3-|
|-0-6-3-0-5-2-0-----1-3-4-1-|



|-----------------------------|
|-----------------------------|
|-----------------------------|
|---------------5-8-----------|
|---8-5---7-4---3-6-3-5-6-5-3-|
|-0-6-3-0-5-2-0-----1-3-4-3-1-|




|---------------------------|
|---------------------------|
|---------------------------|
|---------------5-8---------|
|---8-5---7-4---3-6-3-5-6-3-|
|-0-6-3-0-5-2-0-----1-3-4-1-|




	riff 1 with power chords and palm muted
|------------------------------|
|------------------------------|
|------------------------------|
|---------------8-10---6-9-6-5-|
|---5-7---7-9---5-8----4-7-4-3-|
|-0-3-5-0-5-7-0------0---------|
  . . . . . . . . .  . . . . .



|----------------------------|
|----------------------------|
|----------------------------|
|---------------8-10---------|
|---5-7---7-9---5-8----2-3-5-|
|-0-3-5-0-5-7-0------0-0-1-3-|
  . . . . . . . . .  . . .



|------------------------------|
|------------------------------|
|------------------------------|
|---------------8-10---6-9-6-5-|
|---5-7---7-9---5-8----4-7-4-3-|
|-0-3-5-0-5-7-0------0---------|
  . . . . . . . . .  . . . . .



|----------------------------|
|----------------------------|
|----------------------------|
|---------------8-10---------|
|---5-7---7-9---5-8----2-3-5-|
|-0-3-5-0-5-7-0------0-0-1-3-|
  . . . . . . . . .  . . .


last 2 riffs repeated for as long as you feel like...

if there is any errors or that something should be corrected, e-mail me.

  Visit MetalTabs.com for more metal tablature

bottom separator

Contact Us | Privacy Policy | Disclaimer
Copyright © 2001-2014 MetalTabs.com. All Rights Reserved.