top separator

Home

Forum

What's New

Submit a Tab

FAQ

Links

Contact Us

Link to Us

MuSpy.com

MetalTabs.com logo

Bands

0-9

A

B

C

D

E

F

G

H

I

J

K

L

M

N

O

P

Q

R

S

T

U

V

W

X

Y

Z

Search

What

Where
 

Amoral - "Warp" Bass Tab

Plain Text Version
More Amoral Tabs

Hits: 2842
Updated: 2006-08-31 08:51:07

 

By:

epitaph

sendpm.gif

email.gif

Important note
This tab is available online because we obtained explicit permission from Amoral or their label.


#----------------------------------PLEASE NOTE---------------------------------#
#This file is the author's own work and represents their interpretation of the #
#song. You may only use this file for private study, scholarship, or research. #
#Unless specified otherwise, this is NOT an official tab from the band members.#
#------------------------------------------------------------------------------#

  Visit MetalTabs.com for more metal tablature
  
Band: Amoral
Album: Decrowning
Song: Warp

Copyright (c) Spinefarm Records 2005
Version 2.0 - 15th of July, 2006 - Last correction 21th of August

Transcribed By: Lassi Nurminen
Email: Gaborik10@hotmail.com / Gaborik@welho.com

Tuning: B E A D G

0:35
|---|
|---|
|---|
|-0-|
|---|

0:46
|-12-11-9-7-----------------------------|
|-----------9-7-------------------------|
|---------------10-9-7------------------|
|----------------------10-8-7-5---5-7-0-|
|-------------------------------8-------|

0:52
|---------|
|---------|
|---5---7-|
|-7---7---|
|---------|

0:56
|-------|
|-------|
|-5-7-0-|
|-------|
|-------|

1:00
|----------|
|----------|
|-3-5------|
|----------|
|------1-3-|

1:03
|------------|
|------------|
|----5-7-x-7-|
|-0----------|
|------------|

1:07
|-------------|
|-------------|
|-------5---7-|
|-0---7---7---|
|-------------|

1:10
|-----------|
|-----------|
|-0---0-x-0-|
|-----------|
|-----------|

1:13
|----------|
|----------|
|-3-5------|
|----------|
|------1-3-|

1:17
|---|
|---|
|-7-|
|---|
|---|

1:20
|--------------|
|--------------|
|---5---7---7\-|
|-7---7--------|
|--------------|

1:24
|---------|
|---------|
|-0----/7-|
|---------|
|---------|

1:28
|----------|
|----------|
|-3-5------|
|----------|
|------1-3-|

1:31
|---|
|---|
|-7-|
|---|
|---|

1:34
|---------|
|---------|
|---5---7-|
|-7---7---|
|---------|

1:37
|---------|
|-5---7---|
|---7---7-|
|---------|
|---------|

1:38
|--------|
|--------|
|-0----2-|
|--------|
|--------|

1:41
|----------|
|----------|
|-3-5------|
|----------|
|------1-3-|

1:45
|---|
|---|
|-7-|
|---|
|---|

1:48
|---------|
|---------|
|-7-7-x-7-|
|---------|
|---------|

1:51
|------|
|------|
|-7\-0-|
|------|
|------|

1:54
|-------------|
|-------------|
|-2--3-5------|
|-------------|
|---------1-3-|

1:59
|---|
|---|
|-7-|
|---|
|---|

2:02
|--------------|
|--------------|
|---5---7---7\-|
|-7---7--------|
|--------------|

2:06
|--------|
|--------|
|-0----2-|
|--------|
|--------|

2:09
|----------|
|----------|
|-3-5------|
|----------|
|------1-3-|

Done

  Visit MetalTabs.com for more metal tablature

bottom separator

Contact Us | Privacy Policy | Disclaimer | Legal Notice
Copyright © 2001-2014 MetalTabs.com. All Rights Reserved.