top separator

Home

Forum

What's New

Submit a Tab

FAQ

Links

Contact Us

Link to Us

MuSpy.com

MetalTabs.com logo

Bands

0-9

A

B

C

D

E

F

G

H

I

J

K

L

M

N

O

P

Q

R

S

T

U

V

W

X

Y

Z

Search

What

Where
 

Graveworm - "Fear of the Dark (Iron Maiden cover)" Guitar Tab

Plain Text Version
More Graveworm Tabs

Hits: 11672
Rated: 4.33 out of 5 (21 votes)
Updated: 2006-11-06 02:45:40

 

By:

USS

sendpm.gif

email.gif

Important note
This tab is available online because we obtained explicit permission from Graveworm or their label.


#----------------------------------PLEASE NOTE---------------------------------#
#This file is the author's own work and represents their interpretation of the #
#song. You may only use this file for private study, scholarship, or research. #
#Unless specified otherwise, this is NOT an official tab from the band members.#
#------------------------------------------------------------------------------#

  Visit MetalTabs.com for more metal tablature
  
Band:  Graveworm
Album: Scourge of Malice
Song:  Fear of the Dark (Iron Mayden cover)

Copyright (c)  Neon Knights records 2001
Version 1.0 -  2002

Transcribed By: Chayns of Demolishment
Email:          infernal_purge@hotmail.com

Note: Many people think this version is made by Cradle of Filth.
So I want to let Thee all know Cradle has never touched this song!

Note: Iron Mayden plays this song in D minor, Graveworm in A minor.
So do not mistake by the Iron Mayden original and judging
this tab on the key it is written in, because it is correct!

Note: tune down one whole step
D|
A|
F|
C|
G|
D|

Note:
There is a string ensemble playing the passage initially played by
the acoustic guitar. There are some differences between this
version and the original.

Note:
There is a bagpipe solo with many blue notes, which are not tabbed,
because the tab would be too large and it is impossible for a bagpipe
to play at the speed on the CD without any blue notes.

Note:
=  let ring

Intro
|-------------------|-------------------|
|-------------------|-------------------|
|-44--4466-77664466-|-------44-6644--6--|
|---44--------------|-77--77-------77-7-| twice
|-------------------|---77--------------|
|-------------------|-------------------|

|-------------------|-------------------|
|-------------------|-------------------|
|-------------------|-------------------|
|-44--4466-77664466-|-------44-6644--6--|
|---44--------------|-77--77-------77-7-|
|-------------------|---77--------------|

|-------------------|--------------------------|
|-------------------|--------------------------|
|-------------------|--------------------------|
|-44--4466-77664466-|-------------4------------|
|---44--------------|-7-----5--7-----7--5--4-5==
|-------------------|----7---------------------|

Violin riff 1 (tabbed as guitar tab)
-------14-||-15-17-15-14---|-----------|
----17----||------------15-=-=---15----|
-16-------||o--------------|--------16-|
----------||o--------------|-----------|
----------||---------------|-----------|
----------||---------------|-----------|

                             4
|----15-15-17-|-----------14-||-15-17-15-14---|-----|
|-------------|-17-----17----||------------15-=-=---|
|-17----------|-----16------o||---------------|-----|
|-------------|-------------o||---------------|-----|
|-------------|--------------||---------------|-----|
|-------------|--------------||---------------|-----|

|-----------|----------|-14-15---1415-=-=====----|
|-15--------|----17----|--------------|----------|
|------1617-=-=--------|--------------|----------|
|-----------|----------|--------------|----------|
|-----------|----------|--------------|----------|
|-----------|----------|--------------|----------|

|---15-15-14-|-15-14-15-17-|-20-19-17-14-|-15===--|
|------------|-------------|-------------|--------|
|------------|-------------|-------------|--------|
|------------|-------------|-------------|--------|
|------------|-------------|-------------|--------|
|------------|-------------|-------------|--------|

|--------------|----------|-14-15---1415-=-=====----|
|---15-15------|----17----|--------------|----------|
|---------1617-=-=--------|--------------|----------|
|--------------|----------|--------------|----------|
|--------------|----------|--------------|----------|
|--------------|----------|--------------|----------|

|---15-15-14-|-15-14-15-17-|-19-17-15----|--------|
|------------|-------------|----------17-|-17===--|
|------------|-------------|-------------|--------|
|------------|-------------|-------------|--------|
|------------|-------------|-------------|--------|
|------------|-------------|-------------|--------|

Riff 1
|-----------------|-----------------|
|-----------------|-----------------|
|-----------------|-----------------|
|---4-2-4---4-2-4-|---4-2-4---4-2-4-|
|-2-------2-------|-2-------2-------|
|-----------------|-----------------|

|-----------------|-----------------|
|-----------------|-----------------|
|-----------------|-----------------|
|---4-2-4---4-2-4-|-----------2-----|
|-2-------2-------|-2---2-4-5---5-4-|
|-----------------|---2-------------|

Riff 2
|-----------------|-----------------|
|-----------------|-----------------|
|-4-4-4-4-4-4-4-4-|-----------------|
|-4-4-4-4-4-4-4-4-|-5-5-5-5-5-5-5-5-|
|-2-2-2-2-2-2-2-2-|-5-5-5-5-5-5-5-5-|
|-2-2-2-2-2-2-2-2-|-3-3-3-3-3-3-3-3-|

|-----------------|-----------------|
|-----------------|-----------------|
|-----------------|-4-4-4-4-4-------|
|-7-7-7-7-7-7-7-7-|-4-4-4-4-4-7-5-7-|
|-7-7-7-7-7-7-7-7-|-2-2-2-2-2-7-5-7-|
|-5-5-5-5-5-5-5-5-|-2-2-2-2-2-5-3-5-|

Riff 3
|---------------|---------------|--------------|-----------|
|---------------|---------------|--------------|-----------|
|---------------|---------------|--------------|-9=====----|
|-5===---7===---|-9===---7===---|-5===---7=-9=-|-9=====----|
|-5===---7===---|-9===---7===---|-5===---7=-9=-|-7=====----|
|-3===---5===---|-7===---5===---|-3===---5=-7=-|-0=====----|

Riff 2 agayn
Riff 3 agayn
Riff 1 agayn

Riff 4 (played -under solo’s)
|-----------|-----------|-----------|-----------|
|-----------|-----------|-----------|-----------|
|-4=====----|-----------|-----------|-4=====----|
|-4=====----|-5=====----|-7=====----|-4=====----|
|-2=====----|-5=====----|-7=====----|-2=====----|
|-2=====----|-3=====----|-5=====----|-2=====----|

Violin solo
Part 1
|------------|---------------|------------------|---------|
|-12==-14-15-|-14=-151412=---|------------------|---------|
|------------|-------------14|-12=--11-9=-11-12-|-11===---|
|------------|---------------|------------------|---------|
|------------|---------------|------------------|---------|
|------------|---------------|------------------|---------|

|------------|---------------|------------------|-----------|
|-12==-14-15-|-14=-151412=---|------------10----|-12===-----|
|------------|-------------14|-12=--11-9=-------|--------11-|
|------------|---------------|------------------|-----------|
|------------|---------------|------------------|-----------|
|------------|---------------|------------------|-----------|

Part 2
|--------------|----12---------------|----12------------|------------|
|-12==---12-14-|-15---1514=----12-14-|-15---1514=-------|------------|
|------11------|-------------11------|-------------11-12|-11=====----|
|--------------|---------------------|------------------|------------|
|--------------|---------------------|------------------|------------|
|--------------|---------------------|------------------|------------|

|--------------|----12---------------|----12-------14-15|-14---------|
|-12==---12-14-|-15---1514=----12-14-|-15---1514=-------|------------|
|------11------|-------------11------|------------------|------------|
|--------------|---------------------|------------------|------------|
|--------------|---------------------|------------------|------------|
|--------------|---------------------|------------------|------------|

Bagpipe solo
As guitar solo with some distortions it sounds very awesome.
|-------------|------------|-------------|------------------|
|-------------|------------|-------------|------------------|
|-------------|------------|-------------|------------------|
|-16==--14----|-14---------|-14=---------|------------------|
|----------17-|---1714==---|------1714---|-17-14=-----14-17-|
|-------------|------------|----------17-|---------17-------|

|-------------|------------------------|------------------|----------|
|-------------|------------------------|------------------|----------|
|-------------|------------------------|------------------|----------|
|-16==--17-16-|-14=--------------------|------------------|----------|
|-------------|----1716-14-17-16-14----|-16==----14----16-|-14====---|
|-------------|---------------------17-|------------17----|----------|

Fill with keys and riff 4 twice
Then guitar solo

-----|---------------------|------------------------|
-----|---------------------|------------------------|
-----|---------------------|------------------------|
-----|----16----14===------|----16----14=-----------|
1414-|-14----17-------1414-|-14----17-----17=--1010-|
-----|---------------------|------------------------|

|--------------------|-----------------------|
|--------------------|-----------------------|
|--------------------|-----------------------|
|----12-9-11===------|----12-9-11=-----------|
|-10------------1010-|-10----------12=-------|
|--------------------|------------------1212-|

|---------------|-------------------|-------------------|-------------------|
|---------------|-------------------|-------------------|-------------------|
|---------------|-------------------|-------------------|-------------------|
|---------------|----------11-------|-------------------|-------------------|
|---14--12=-----|-------12---141214-=-=--14-12=--12-14=-=-=--14-12=--12-14=-|
|-12--15---1414-|-14-914------------|--14------14-------|--14------14-------|

Riff 1 twice
Riff 2 twice
Riff 3 four times ending on a ‘let ring’ chord:
D5
|----------|
|----------|
|-9=====---|
|-9=====---|
|-7=====---|
|-0=====---|

Followed by the violin riff
Violin riff 1 (tabbed as guitar tab)
-------14-||-15-17-15-14---|-----------|
----17----||------------15-=-=---15----|
-16-------||o--------------|--------16-|
----------||o--------------|-----------|
----------||---------------|-----------|
----------||---------------|-----------|

|----15-15-17-|-----------14-||
|-------------|-17-----17----||
|-17----------|-----16------o||
|-------------|-------------o|| Repeat and Fade
|-------------|--------------||
|-------------|--------------||

Any corrections are welcome!!

  Visit MetalTabs.com for more metal tablature

bottom separator

Contact Us | Privacy Policy | Disclaimer | Legal Notice
Copyright © 2001-2014 MetalTabs.com. All Rights Reserved.