top separator

Home

Forum

What's New

Submit a Tab

FAQ

Links

Contact Us

Link to Us

MetalTabs.com logo

Bands

0-9

A

B

C

D

E

F

G

H

I

J

K

L

M

N

O

P

Q

R

S

T

U

V

W

X

Y

Z

Search

What

Where
 

Satans Elite Kommando - "Satans Elite Kommando" Guitar Tab

Plain Text Version
More Satans Elite Kommando Tabs

Hits: 3376
Rated: 4.00 out of 5 (5 votes)
Updated: 2006-08-31 08:47:48

 

By:

Wolfsherz

sendpm.gif

email.gif

Important note
This tab is available online because we obtained explicit permission from Satans Elite Kommando or their label.


#----------------------------------PLEASE NOTE---------------------------------#
#This file is the author's own work and represents their interpretation of the #
#song. You may only use this file for private study, scholarship, or research. #
#Unless specified otherwise, this is NOT an official tab from the band members.#
#------------------------------------------------------------------------------#

  Visit MetalTabs.com for more metal tablature
  
Band: Satans Elite Kommando
Album: Mehr Nägel fur das Schwein
Song: Satans Elite Kommando
By cautereels.jens@gmail.com
Tuning: EADGBe
Guitar 1:
e  ----------------------------------------------------------------
B -----------------------------------------------------------------
G -----------------------------------------------------------------
D -----------------------------------------------------------------
A -----------------------------------------------------------------
E 55-77-88-77-55-77-88-77-55-77-88-77-1010-88-77-88---------------- X4

Guitar 2:
e  ----------------------------------------------------------------
B -----------------------------------------------------------------
G -----------------------------------------------------------------
D 7----------------------------------7/3-3----------2--------------
A 7----------------------------------7/3-3----------2--------------
E 5----------------------------------5/1-1----------0-------------- X4

Guitars 1/2:
e  ----------------------------------------------------------------
B -----------------------------------------------------------------
G -----------------------------------------------------------------
D 7-7-7-7--7/3-3-3-3-3--2-2-2-2------------------------------------
A 7-7-7-7--7/3-3-3-3-3--2-2-2-2------------------------------------
E 5-5-5-5--5/1-1-1-1-1--0-0-0-0------------------------------------ X4

Guitar 1:
e  ----------------------------------------------------------------
B -----------------------------------------------------------------
G -----------------------------------------------------------------
D -----------------------------------------------------------------
A -----------------------------------------------------------------
E 55-77-88-77-55-77-88-77-55-77-88-77-1010-88-77-88---------------- X2

Guitar 2:
e  ----------------------------------------------------------------
B -----------------------------------------------------------------
G 5-0-5-0-5-0-5-0-5-0-5-0-5-0-5-10-0-5-0-10-0-5-5-0-5-0------------
D -----------------------------------------------------------------
A -----------------------------------------------------------------
E ----------------------------------------------------------------- X2

Guitars 1/2:
e  ----------------------------------------------------------------
B -----------------------------------------------------------------
G -----------------------------------------------------------------
D 7-7-7-7--7/3-3-3-3-3--2-2-2-2------------------------------------
A 7-7-7-7--7/3-3-3-3-3--2-2-2-2------------------------------------
E 5-5-5-5--5/1-1-1-1-1--0-0-0-0------------------------------------ X4

Guitars 1/2:
e  ----------------------------------------------------------------
B -----------------------------------------------------------------
G -----------------------------------------------------------------
D 7-7-7-7--9/10-101010101010---------------------------------------
A 7-7-7-7--9/10-101010101010---------------------------------------
E 5-5-5-5--7/8--8-8-8-8-8-8---------------------------------------- X8

e  ----------------------------------------------------------------
B -----------------------------------------------------------------
G -----------------------------------------------------------------
D 5-5-5---10/9/7-7-7-7-7/5-----------------------------------------
A 5-5-5---10/9/7-7-7-7-7/5-----------------------------------------
E 3-3-5---8/7/-5--5--5-5--5/3--------------------------------------
"Wir sind Satans Elite   Kommando!"

Guitars 1/2:
e  ----------------------------------------------------------------
B -----------------------------------------------------------------
G -----------------------------------------------------------------
D 7-7-7-7--7/3-3-3-3-3--2-2-2-2------------------------------------
A 7-7-7-7--7/3-3-3-3-3--2-2-2-2------------------------------------
E 5-5-5-5--5/1-1-1-1-1--0-0-0-0------------------------------------ X4

Guitar 1:
e  ----------------------------------------------------------------
B -----------------------------------------------------------------
G -----------------------------------------------------------------
D -----------------------------------------------------------------
A -----------------------------------------------------------------
E 55-77-88-77-55-77-88-77-55-77-88-77-1010-88-77-88---------------- X2

Guitar 2:
e  ----------------------------------------------------------------
B -----------------------------------------------------------------
G 5-0-5-0-5-0-5-0-5-0-5-0-5-0-5-10-0-5-0-10-0-5-5-0-5-0------------
D -----------------------------------------------------------------
A -----------------------------------------------------------------
E ----------------------------------------------------------------- X2

Guitars 1/2:
e  ----------------------------------------------------------------
B -----------------------------------------------------------------
G -----------------------------------------------------------------
D 7-7-7-7--7/3-3-3-3-3--2-2-2-2------------------------------------
A 7-7-7-7--7/3-3-3-3-3--2-2-2-2------------------------------------
E 5-5-5-5--5/1-1-1-1-1--0-0-0-0------------------------------------ X4

Guitars 1/2:
e  ----------------------------------------------------------------
B -----------------------------------------------------------------
G -----------------------------------------------------------------
D 7-7-7-7--9/10--101010101010--------------------------------------
A 7-7-7-7--9/10--101010101010--------------------------------------
E 5-5-5-5--7/8---8-8-8-8-8-8--------------------------------------- X8

e  ----------------------------------------------------------------
B -----------------------------------------------------------------
G -----------------------------------------------------------------
D 5-5-5-10/9/7-7-7-7-7/5-------------------------------------------
A 5-5-5-10/9/7-7-7-7-7/5-------------------------------------------
E 3-3-5-8/7/-5-5-5-5-5/3--------------------------------------------

  Visit MetalTabs.com for more metal tablature

bottom separator

Contact Us | Privacy Policy | Disclaimer | Legal Notice
Copyright © 2001-2014 MetalTabs.com. All Rights Reserved.