top separator

Home

Forum

What's New

Submit a Tab

FAQ

Links

Contact Us

Link to Us

MetalTabs.com logo

Bands

0-9

A

B

C

D

E

F

G

H

I

J

K

L

M

N

O

P

Q

R

S

T

U

V

W

X

Y

Z

Search

What

Where
 

Gut - "Throat job (itís a dirty job but someone has got to do it)" Guitar Tab

Plain Text Version
More Gut Tabs

Hits: 4958
Updated: 2006-08-31 08:44:22

 

By:

Robbie Filth

sendpm.gif

email.gif

Important note
This tab is available online because we obtained explicit permission from Gut or their label.


#----------------------------------PLEASE NOTE---------------------------------#
#This file is the author's own work and represents their interpretation of the #
#song. You may only use this file for private study, scholarship, or research. #
#Unless specified otherwise, this is NOT an official tab from the band members.#
#------------------------------------------------------------------------------#

  Visit MetalTabs.com for more metal tablature
  
Band: Gut
Album: The Cumback
Song: Throatjob (It's a dirty job, but someone's gotta do it)
Record Label: Necroharmonic prod./Obliteration rec.
Tuning: G# C# F# B D# G#

------------------------------
------------------------------
------------------------------
------------------------------
-----4-3---2-1----------------
-1-1-----1-----1-5-1-4-1-222--X4

-----------------------------------------------------------
-----------------------------------------------------------
-----------------------------------------------------------
-----------------------------------------------------------
-3-3-3-3-3-3-3-3-3-3-3-6-3-6-8-3-3-3-3-3-3-3-3-3-3-9-9999--
-1-1-1-1-1-1-1-1-1-1-1-4-1-4-6-1-1-1-1-1-1-1-1-1-1-7-7777--
     pm      .       .   .         .       .     .

------------------------------------------------------
------------------------------------------------------
------------------------------------------------------
------------------------------------------------------
-3-3-3-3-3-3-3-3-3-3-3-6-3-6-8-3-3-3-3-3-3-3-3-3-3-9--
-1-1-1-1-1-1-1-1-1-1-1-4-1-4-6-1-1-1-1-1-1-1-1-1-1-7--
     pm      .       .   .         .       .     .

------------------------------
------------------------------
------------------------------
------------------------------
-----4-3---2-1----------------
-1-1-----1-----1-5-1-4-1-222--X4

-----------------------------------------------------------
-----------------------------------------------------------
-----------------------------------------------------------
-----------------------------------------------------------
-3-3-3-3-3-3-3-3-3-3-3-6-3-6-8-3-3-3-3-3-3-3-3-3-3-9-9999--
-1-1-1-1-1-1-1-1-1-1-1-4-1-4-6-1-1-1-1-1-1-1-1-1-1-7-7777--
     pm      .       .   .         .       .     .

-----------------------------------------------------------
-----------------------------------------------------------
-----------------------------------------------------------
-----------------------------------------------------------
-3-3-3-3-3-3-3-3-3-3-3-6-3-6-8-3-3-3-3-3-3-3-3-3-3-9-9999--
-1-1-1-1-1-1-1-1-1-1-1-4-1-4-6-1-1-1-1-1-1-1-1-1-1-7-7777--
     pm      .       .   .         .       .     .

------------------------------
------------------------------
------------------------------
------------------------------
-----4-3---2-1----------------
-1-1-----1-----1-5-1-4-1-222--X3

--------------------------------
--------------------------------
--------------------------------
--------------------------------
-----4-3---2-1---------------3--
-1-1-----1-----1-5-1-4-1-222-1--

Any questions mail them to: septic_flesh241@hotmail.com

  Visit MetalTabs.com for more metal tablature

bottom separator

Contact Us | Privacy Policy | Disclaimer | Legal Notice
Copyright © 2001-2014 MetalTabs.com. All Rights Reserved.