top separator

Home

Forum

What's New

Submit a Tab

FAQ

Links

Contact Us

Link to Us

MuSpy.com

MetalTabs.com logo

Bands

0-9

A

B

C

D

E

F

G

H

I

J

K

L

M

N

O

P

Q

R

S

T

U

V

W

X

Y

Z

Search

What

Where
 

Onslaught (UK) - "Let There Be Death" Guitar Tab

Plain Text Version
More Onslaught (UK) Tabs

Hits: 2609
Rated: 5.00 out of 5 (1 vote)
Updated: 2006-08-31 08:39:47

 

By:

Dahmers Fridge

sendpm.gif

email.gif

Important note
This tab is available online because we obtained explicit permission from Onslaught (UK) or their label.


#----------------------------------PLEASE NOTE---------------------------------#
#This file is the author's own work and represents their interpretation of the #
#song. You may only use this file for private study, scholarship, or research. #
#Unless specified otherwise, this is NOT an official tab from the band members.#
#------------------------------------------------------------------------------#

  Visit MetalTabs.com for more metal tablature
  
Band:  Onslaught
Album: The Force
Song:  Let There Be Death

Copyright (c)  (Under One Flag) (1986)
Version 1.0 - (13/08/06)

Transcribed By: Steve
Email:          stephen.elvidge1@ntlworld.com


.  - palm mute           /  - slide up to
\  - slide down to       ~  - vibrato
h  - hammer on           b  - Bend
p  - pull off            Suffixes for bend
t  - tap                 f  - full bend    h - half bend
ph - pinched harmonic    q  - quarter bend t - tap bend
*  - see comment         ^  - Hold bend    r release bend
x  - Stuccatto           ~  - vibrato bend
,  - slight palm mute    () - ghost note, sustained note
"  - tremolo note        <> - harmonic
pb - pre bend

Tuning E A D G B E


 Intro

    [----PM---]   [----PM---]   [----PM---]  [PM]
|-------------------------------------------------------|
|-------------------------------------------------------|
|-9-------------9-------------9-------------9-----9/10\-|
|-9-------------9-------------9-------------9-----9/10\-|
|-7-------------7-------------7-------------7-----7/8-\-|
|---0-0-0-0-0-0---0-0-0-0-0-0---0-0-0-0-0-0---0-0-------|

    [----PM---]   [----PM---]   [----PM---]
|-----------------------------------------------------|
|-----------------------------------------------------|
|-9-------------9-------------9-------------101010\7/-|
|-9-------------9-------------9-------------101010\7/-|
|-7-------------7-------------7-------------8-8-8-\5/-|
|---0-0-0-0-0-0---0-0-0-0-0-0---0-0-0-0-0-0-----------|

 Rpt

 Guitar 1
    [----PM---]   [----PM---]   [----PM---]  [PM]
[-------------------------------------------------------|
[-------------------------------------------------------|
[-9-------------9-------------9-------------9-----9/10\-|
[-9-------------9-------------9-------------9-----9/10\-|
[-7-------------7-------------7-------------7-----7/8-\-|
[---0-0-0-0-0-0---0-0-0-0-0-0---0-0-0-0-0-0---0-0-------|
[Guitar 2
[-------------------------------------------------------|
[-------------------------------------------------------|
[-------------------------------------------------------|
[-------------------------------------------------------|
[-2---------------------(2)-----------------------2-----|
[-0---------------------(0)-----------------------0-----|


 Guitar 1
    [----PM---]   [----PM---]   [----PM---]
[-----------------------------------------------------|
[-----------------------------------------------------|
[-9-------------9-------------9-------------101010\7/-|
[-9-------------9-------------9-------------101010\7/-|
[-7-------------7-------------7-------------8-8-8-\5/-|
[---0-0-0-0-0-0---0-0-0-0-0-0---0-0-0-0-0-0-----------|
[Guitar 2
[-----------------------------------------------------|
[-----------------------------------------------------|
[-----------------------------------------------------|
[-----------------------------------------------------|
[-5----------------------(5)--------------------5-----|
[-3----------------------(3)--------------------3-----|

 Rpt above

 Both guitars

    [----PM---]   [----PM---]   [----PM---]  [PM]
|-------------------------------------------------------|
|-------------------------------------------------------|
|-9-------------9-------------9-------------9-----9/10\-|
|-9-------------9-------------9-------------9-----9/10\-|
|-7-------------7-------------7-------------7-----7/8-\-|
|---0-0-0-0-0-0---0-0-0-0-0-0---0-0-0-0-0-0---0-0-------|

    [----PM---]   [----PM---]   [----PM---]
|-----------------------------------------------------|
|-----------------------------------------------------|
|-9-------------9-------------9-------------101010\7/-|
|-9-------------9-------------9-------------101010\7/-|
|-7-------------7-------------7-------------8-8-8-\5/-|
|---0-0-0-0-0-0---0-0-0-0-0-0---0-0-0-0-0-0-----------|

 Rpt

 [--PM--]     [--PM-]     [--PM-]      [-PM] [-PM]
|----------------------------------------------------|
|----------------------------------------------------|
|----------------------------------------------------|
|-------9/10\9-------------------9/10\9--------------|
|-------7/8-\7-------4/5\4-------7/8-\7-----5-----4--|
|-0-0-0--------0-0-0-2/3\2-0-0-0--------0-0-3-0-0-2--| Rpt 10 X

 Guitar 1
    [--PM-]  [--PM-] [--PM--]          [--PM-]  [--PM-] [--PM--]
[-------------------------------------------------------------------------|
[-------------------------------------------------------------------------|
[-9--------9--------9--------9-/1010\9--------9--------9--------10\7/10\9-|
[-9--------9--------9--------9-/1010\9--------9--------9--------10\7/10\9-|
[-7--------7--------7--------7-/8-8-\7--------7--------7--------8-\5/8-\7-|
[---000000---000000---000000-----------000000---000000---000000-----------|
[Guitar 2
[-------------------------------------------------------------------------|
[-------------------------------------------------------------------------|
[---------------------------------------------------------------10\7/10\9-|
[---------------------------------------------------------------10\7/10\9-|
[-2-------------------------------------------------------------8-\5/8-\7-|
[-0-----------------------------------------------------------------------|

 Main Riff

    [--PM-]  [--PM-] [--PM--]          [--PM-]  [--PM-] [--PM--]
|-------------------------------------------------------------------------|
|-------------------------------------------------------------------------|
|-9--------9--------9--------9-/1010\9--------9--------9--------10\7/10\9-|
|-9--------9--------9--------9-/1010\9--------9--------9--------10\7/10\9-|
|-7--------7--------7--------7-/8-8-\7--------7--------7--------8-\5/8-\7-|
|---000000---000000---000000-----------000000---000000---000000-----------|

 Rpt 4 X for solo backing

 Guitar solo

      h    h     h     h     h     h     h
|-12-15p12-15p12-15p12-15p12-15p12-15p12-15p12-15-15fb-r15-|
|-------------------------------------------------------------------|
|-------------------------------------------------------------------|
|-------------------------------------------------------------------|
|-------------------------------------------------------------------|
|-------------------------------------------------------------------|

   h    h     h     h     h     h     h     ph ~~
|--------------------------------------------------------------------|
|-15p12-15p12-15p12-15p12-15p12-15p12-15p12-17b--\-------------------|
|----------------------------------------------------------7-9p7-9p7-|
|--------------------------------------------------9-9p7-9-----------|
|--------------------------------------------------------------------|
|--------------------------------------------------------------------|


|-------------------12-------12---------------------------|
|-8-10p8-10p8-12-15----12-15----15-15151515-17b---17b-----|
|---------------------------------------------------------|
|---------------------------------------------------------|
|---------------------------------------------------------|
|---------------------------------------------------------|

      h               h     h                h     h     h    h
|-19-22p19-22p--19-19-22p19-22p19-22fb---14-17p14-17p14-17p14-17p-|
|-----------------------------------------------------------------|
|-----------------------------------------------------------------|
|-----------------------------------------------------------------|
|-----------------------------------------------------------------|
|-----------------------------------------------------------------|

                                 h     h     h     h      h
|-14-17b--17b17b--------------------------10-12-10-12-14-17p14--|
|-----------------------------10-12-10-12-----------------------|
|----------------11-9-11p9-11-----------------------------------|
|---------------------------------------------------------------|
|---------------------------------------------------------------|
|---------------------------------------------------------------|

   h     h     h     h     h     h          ~~~~~~~~~~~
|-17p14-17p14-17p14-17p14-17p14-17p14-17b---------------|
|-------------------------------------------------------|
|-------------------------------------------------------|
|-------------------------------------------------------|
|-------------------------------------------------------|
|-------------------------------------------------------|

 Rpt Main Riff 3 X for Verse

 Bridge

 [-PM-]   PM ~~PM   ~~    h~~[-PM-]   PM ~~[---PM---]
|-------------------------------------------------------|
|-------------------------------------------------------|
|-------------------------------------------------------|
|-------3---------------------------3----------------5--|
|-------1---------2-3---------------1----------------3--|
|-0-0-0---0-3--00------3-2-3--0-0-0---0-3--0000-0000----|

 [-PM-]   PM ~~PM   ~~PM   h~~[-PM-]  PM ~~[---PM---]
|-------------------------------------------------------|
|-------------------------------------------------------|
|-------------------------------------------------------|
|-------3---------------------------3----------------5--|
|-------1---------2-3---------------1----------------3--|
|-0-0-0---0-3--00------3-2-3--0-0-0---0-3--0000-0000----|

 Chorus


    [--PM-]  [--PM-] [--PM--]          [--PM-]  [--PM-] [--PM--]
|-------------------------------------------------------------------------|
|-------------------------------------------------------------------------|
|-9--------9--------9--------10\7/10\9--------9--------9--------9-/1010\9-|
|-9--------9--------9--------10\7/10\9--------9--------9--------9-/1010\9-|
|-7--------7--------7--------8-\5/8-\7--------7--------7--------7-/8-8-\7-|
|---000000---000000---000000-----------000000---000000---000000-----------|


    [--PM-]  [--PM-] [--PM--]          [--PM-]  [--PM-]
|-----------------------------------------------------------------------|
|-----------------------------------------------------------------------|
|-9--------9--------9--------10\7/10\9--------9--------10\7/10-10\7/10\-|
|-9--------9--------9--------10\7/10\9--------9--------10\7/10-10\7/10\-|
|-7--------7--------7--------8-\5/8-\7--------7--------8-\5/8--8-\5/8-\-|
|---000000---000000---000000-----------000000---000000------------------|

 Rpt Verse
 Rpt Bridge
 Rpt Chorus

 Mid 8

 [------------PM-------------]    [----PM----]   [PM]  [-PM-]
|-----------------------------------------------------------------|
|-----------------------------------------------------------------|
|-----------------------------------------------------------------|
|-----------------------------9\7---------------------------------|
|-----------------------------7\5-------------5------3-------8\7--|
|-0-0-0-0-0-0-0-0-0-0-0-0-0-0-----0-0-0-0-0-0-3--0-0-1--0-00-6\5--| Rpt 8 X

 Guitar 1
 [-PM-] [-PM-]                 [-PM-] [-PM-]
[--------------------------------------------------------------|
[--------------------------------------------------------------|
[--------------------------------------------------------------|
[------5------223p2-3p2--------------5------223p2-3p2----------|
[------3----------------3p2-2p0------3----------------3p2-2p0--|
[-0000---0000-------------------0000---0000--------------------|
[Guitar 2
[--------------------------------------------------------------|
[--------------------------------------------------------------|
[--------------------------------------------------------------|
[-------------------------------4------------------------------|
[-2-----------------------------2------------------------------|
[-0------------------------------------------------------------|


 Guitar 1
 [-PM-] [-PM-]                 [-PM-] [-PM-]
[--------------------------------------------------------------|
[--------------------------------------------------------------|
[--------------------------------------------------------------|
[------5------223p2-3p2--------------5------223p2-3p2----------|
[------3----------------3p2-2p0------3----------------3p2-2p0--|
[-0000---0000-------------------0000---0000--------------------|
[Guitar 2
[--------------------------------------------------------------|
[--------------------------------------------------------------|
[--------------------------------------------------------------|
[-4----------4------------------4----5-------------------------|
[-2----------2------------------2----3-------------------------|
[--------------------------------------------------------------|

 Guitar 1
   [-PM-] [-PM-]
[---------------------------------------|
[---------------------------------------|
[---------------2-3p2-3p2---------------|
[-4------5----------------2-3p2-3p2p0---|
[-2------3------------------------------|
[---0000---0000-------------------------|
[Guitar 2
[  [-PM-] [-PM-]
[---------------------------------------|
[---------------------------------------|
[---------------------------------------|
[-4------5------2-3p2-3p2---------------|
[-2------3----------------2-3p2-3p2p0---|
[---0000---0000-------------------------| Rpt 12 X

 Backing for solo

   [-PM-] [-PM-] [-PM-]       [-PM-] [-PM-] [-PM-]
|-----------------------------------------------------------|
|-----------------------------------------------------------|
|-----------------------------------------------------------|
|-----------------------------------------------------------|
|-7------7------7------7-8-8\7------7------7------7-8\5/8\--|
|-5-5555-5-5555-5-5555-5-6-6\5-5555-5-5555-5-5555-5-6\3/6\--| Rpt 4 X


   [-PM-] [-PM-] [-PM-]        [-PM-] [-PM-] [-PM-]
|-----------------------------------------------------------|
|-----------------------------------------------------------|
|-9------9------9------101010\9------9------9------10\7/10\-|
|-9------9------9------101010\9------9------9------10\7/10\-|
|-7------7------7------8-8-8-\7------7------7------8-\5/8-\-|
|---0000---0000---0000----------0000---0000---0000----------|

 Rpt 4 X

 Guitar Solo

    ~~~~~~~~~~~~~~~~~~~~~~~~~~~~
|-15fb-----15fb---15fb--15fb----17-20-17----------17-20-17----17-20b-|
|----------------------------------------19-17-19----------19--------|
|--------------------------------------------------------------------|
|--------------------------------------------------------------------|
|--------------------------------------------------------------------|
|--------------------------------------------------------------------|

             h     h                 h
|-17--20p17-20p17-20p17-15-----------------------------------------|
|--------------------------17-15-13-15p13-15b-------------15p13-15-|
|-----------------------------------------------9p7-9--------------|
|-----------------------------------------------------5-7----------|
|------------------------------------------------------------------|
|------------------------------------------------------------------|

          ~~~~~~~~~~~~~ph~~~~              h    h     h          ~~~~~
|---------------------------------------------------------------------|
|-15b--\---------------17---------------------------------------------|
|-----------------------------14\12/14p12-14p12-14p12-14p12-14b--15---|
|--------14-----------------------------------------------------------|
|---------------------------------------------------------------------|
|---------------------------------------------------------------------|

     h     h     h         h     h     h        h     h     h
|-------------------------------------------------------------------|
|-13-15p13-15p13-15p13\11-12p11-12p11-12p11\10-12p10-12p10-12p10----|
|-------------------------------------------------------------------|
|-------------------------------------------------------------------|
|-------------------------------------------------------------------|
|-------------------------------------------------------------------|

       h    h     h
|-------------------------------------------------------|
|-------------------------------------------------------|
|-11p9-11p9--------------------------0--trem dive-------|
|-----------12p10-12p10----10-12-p10--------------------|
|-----------------------12------------------------------|
|-------------------------------------------------------|

     h      h     h     h     h     h    h
|-12-15p12-15p12-15p12-15p12-15p12-15p12-15p12-15fb----r----|
|-----------------------------------------------------------|
|-----------------------------------------------------------|
|-----------------------------------------------------------|
|-----------------------------------------------------------|
|-----------------------------------------------------------|

     h                  h        ~~~~      ~~~~~~~~~~   ~~~~~~~~~~~
|-------------------------------------------------------------------|
|-12-15p12----------------------------15fb-----------15fb-----------|
|----------14-12-14p12-14p12-14b------------------------------------|
|-------------------------------------------------------------------|
|-------------------------------------------------------------------|
|-------------------------------------------------------------------|

                      ~~   ~~~                           h    h
|-----------------------------------------------------------------|
|-----------------------------------------------------------------|
|-14-12-14p12-14-14b---14b-----\-------9-7-9p7-9-14b--------------|
|--------------------------------9-7-9---------------------12-14--|
|----------------------------------------------------12-14--------|
|-----------------------------------------------------------------|

     h                              h       h               ~~~~~~
|-------------------12----------------------------------------------|
|-------------12-15----15-17p15-15-17p15-15-17p15-17fb----17fb------|
|-12-14-12-14-------------------------------------------------------|
|-------------------------------------------------------------------|
|-------------------------------------------------------------------|
|-------------------------------------------------------------------|

      h     h        h     h        h     h        h     h
|-15-19p15-19p15-14-17p14-17p14-12-15p12-15p12-10-14p10-14p10--|
|--------------------------------------------------------------|
|--------------------------------------------------------------|
|--------------------------------------------------------------|
|--------------------------------------------------------------|
|--------------------------------------------------------------|

        h
|-9-9-7-9p7\5-7-5-7-5p4-5----|
|----------------------------|
|----------------------------|
|----------------------------|
|----------------------------|
|----------------------------|

 Rpt Main Riff
 Rpt Verse, Bridge and Chorus

 Outro

 [PM-]  [PM-]  [PM-]
|-----------------------------------------------------------|
|-----------------------------------------------------------|
|-----------------------------------------------------------|
|-----5------4------2------------(2)------------------------|
|-0-0-3--0-0-2--0-0-0------------(0)-----------4-/5-\4--2---|
|----------------------------------------------2-/3-\2--0---|




END

  Visit MetalTabs.com for more metal tablature

bottom separator

Contact Us | Privacy Policy | Disclaimer | Legal Notice
Copyright © 2001-2014 MetalTabs.com. All Rights Reserved.