#----------------------------------PLEASE NOTE---------------------------------#
#This file is the author's own work and represents their interpretation of the #
#song. You may only use this file for private study, scholarship, or research. #
#Unless specified otherwise, this is NOT an official tab from the band members.#
#------------------------------------------------------------------------------#

  Visit MetalTabs.com for more metal tablature
  
Band:  Open Grave
Album: The Heavens Cry Black Tears
Song:  The Brutal Assault and Sacrifice of Innocent Children

Copyright (c)  Regimental Records(2004)
Version 1.0 - (5 Aug 2006)

Transcribed By: underaserpentsun
Email:

.  - palm mute           /  - slide up to
  - slide down to       ~  - vibrato
h  - hammer on           b  - Bend
p  - pull off            Suffixes for bend
t  - tap                 f  - full bend    h - half bend
ph - pinched harmonic    q  - quarter bend t - tap bend
*  - see comment         ^  - Hold bend    r release bend
x  - Stuccatto           ~  - vibrato bend
,  - slight palm mute    () - ghost note, sustained note
"  - tremolo note        <> - Trill

Tuning Standard E A D G B E

Riff A
|------------------------------------2x|
|--------------------------------------|
|--------------------------------------|
|----9-----8-------------------------|
|-2------2------2--10--2--6--5--3--2--|
|-0------0------0-------0--4--3--1--0--|
                              .  .
Riff B                       Riff C
|------------------------4x| |-------------------------4x|
|--------------------------| |---------------------------|
|---------8---------------| |---------------------------|
|-9--8-------------------| |-------9--8----------------|
|-------------10--9--10-| |----7--------10--11--10--8-|
|--------------------------| |-0-------------------------|

Riff D
|----------------------------4x|
|-------12--11-----------------|
|----9----------12--13--12--10-|
|------------------------------|
|------------------------------|
|-0----------------------------|

Repeat Riff A 2x

Riff E
|---------------------------4x|
|-----------------------------|
|-11--10----10--9---------|
|---------------------10--9-|
|-----------------------------|
|-----------------------------|

Repeat Riff C 4x
Play Riff C and D together 4x

Riff F
|--------------4x|
|----------------|
|----------------|
|---------9--8-|
|-7--6---------|
|----------------|

Repeat Riff B 4x

Riff G                          Riff H
|------------------------7---3x|-------------1x|
|------------------------------|---------------|
|----------9--10--9--10--------|----------9----|
|-------9----------------------|-------9-------|
|----7-------------------------|----7--------3-|
|-0----------------------------|-0-----------1-|

Repeat Riff G

Riff I
|------------------|
|------------------|
|----------9-------|
|-------9----------|
|----7--------3--2-|
|-0-----------1--0-|

END

  Visit MetalTabs.com for more metal tablature