top separator

Home

Forum

What's New

Submit a Tab

FAQ

Links

Contact Us

Link to Us

MetalTabs.com logo

Bands

0-9

A

B

C

D

E

F

G

H

I

J

K

L

M

N

O

P

Q

R

S

T

U

V

W

X

Y

Z

Search

What

Where
 

Coroner - "Divine Step (Conspectu Mortis)" Guitar Tab

Plain Text Version
More Coroner Tabs

Hits: 3664
Rated: 5.00 out of 5 (2 votes)
Updated: 2006-08-31 08:29:25

 

By:

Sycophant

sendpm.gif

email.gif

Important note
We did our best to reach Coroner and ask for their permission to publish this tab. Unfortunately they did not respond to our requests or we could not find a way to contact them. This tab is available online until Coroner tells us to take it down.


#----------------------------------PLEASE NOTE---------------------------------#
#This file is the author's own work and represents their interpretation of the #
#song. You may only use this file for private study, scholarship, or research. #
#Unless specified otherwise, this is NOT an official tab from the band members.#
#------------------------------------------------------------------------------#

  Visit MetalTabs.com for more metal tablature
  
Author/Artist: Coroner
Title: Divine Step [Conspectu Mortis]
Album: Mental Vortex [1991 Noise Records/BMG]
Transcribed by: Greg D. [Sycophant]
Email: sentience666@hotmail.com

Tune To Eb.

-------------------------|----------------------------------------------------
-------------------------|----------------------------------------------------
-------------------------|-------------------------------------------------9--
-9-9---9---9-9---9---9---|-9-9---9---9-9---9---9---8-8---8---8-8---8---8---8--
-7-7---7---7-7---7---7---|-7-7---7---7-7---7---7---7-7---7---7-7---7---7---7--
-0-0---0---0-0---0---0---|-0-0---0---0-0---0---0---0-0---0---0-0---0---0---0--
 0:41 - 0:47           x4  0:47 - 0:54

-----------------------------------------------|------------------------------
-----------------------1111--11--1111--11--11--|------------------------------
-9---9---9-9---9---9---9-9---9---9-9---9---9---|-9-------------------9--------
-8---8---8-8---8---8---8-8---8---8-8---8---8---|-8-----11----9---12--8--------
-7---7---7-7---7---7---7-7---7---7-7---7---7---|-7-----8-----8---9---7--------
-0---0---0-0---0---0---0-0---0---0-0---0---0---|---0-0---0-0---0---0---0-0----
                                                 0:54 - 1:06

-----------------------------------------------|----------|-------------------
-----------------------------------------------|----------|-------------------
---------------9-------------------9-----------|----------|-------------------
-11----9---12--8-----11----9---12--8-----11----|----------|-------------------
-8-----8---9---7-----8-----8---9---7-----8-----|-8-\7-7-5-|-7/8\7/8-----------
---0-0---0---0---0-0---0-0---0---0---0-0---0-0-|-6-\5-5-3-|-5/6\5/6-----------
                                                rep1        rep2

---------------------------------------------------------------------|--------
---------------------------------------------------------------------|--------
-9------------------9------------------9------------------9----------|--------
-8----11----9---12--8----11----9---12--8----11----9---12--8----11----|--------
-7----8-----8---9---7----8-----8---9---7----8-----8---9---7----8-----|--------
--000---0-0---0---0--000---0-0---0---0--000---0-0---0---0--000---0-0-|--------
 1:06 - 1:18                               use same reps as before

----------------------------------------------------|---------|---------------
----------------------------------------------------|---------|---------------
----------------------------------------------------|---------|---------------
----------------------------------------------------|---------|---------------
-2h3-3-3-2-2-2h3-3-2-5/6\5/6-2h3-3-3-2-2-2h3-6-5/6--|---3---3-|-8\7-7\6-------
-0h1-1-1-0-0-0h1-1-0-3/4\3/4-0h1-1-1-0-0-0h1-4-3/4--|-0h1-0h1-|-6\5-5\4\------
 1:18 - 1:25                                      x2  1:36      1:42

---------|--------------------------------------------------------------------
---------|--------------------------------------------------------------------
---------|--------------------------------------------------------------------
-9---12--|-9-----9-----9---9-----9---------9-----9-----9---9-----9------------
-8---9---|---8-----8-----8---8-----8---7-----8-----8-----8---8-----8---7------
---0---0-|-----7-----7---------7-----7---7-----7-----7---------7-----7---7----
 1:48      1:49 - 1:53

-------------------5\4------------------------------5\4---------------------|-
-------------6\5---6\5------------------------6\5---6\5---------------------|-
-------5\4---5\4---5\4------------------5\4---5\4---5\4---------------------|-
-8\7---8\7---8\7---8\7------------8\7---8\7---8\7---8\7---------------------|-
-7\6---7\6---7\6---7\6------------7\6---7\6---7\6---7\6----3--3-------------|-
-----0-----0-----0-----000-000000-----0-----0-----0-----00-1--1-------------|-
 1:53 - 2:03*                                                     x2

*This riff above is transcribed here as it is heard on the album.
It is obviously the work of a second guitar track overdub, as it is
pretty impossible to play it like it is written out here on 1 guitar.

------------------------------------------------------------------------------
------------------------------------------------------------------------------
---------------------------------7-----7-----7-----7-----7---7----------------
-6-----6-----6-----6---------6---6-----6-----6-----6-----6---6---5-----3------
-6-----6-----6-----6-------5---5-5-5-5-5-5-5-5-5-5-5-5-5-5-5-5-5-3-----2------
-4-4-4-4-4-4-4-4-4-4-4-4-4-----------------------------------------1-1-1-1-1--
 2:41 - 2:51

------------------------------------------------------|-----------------------
------------------------------------------------------|-----------------------
-4-----4---------7---7-----7-----7-----7--------------|-----------------------
-3-----3-------6---6-6-----6-----6-----6---------6----|-2---------------------
-2-----2-----5-------5-5-5-5-5-5-5-5-5-5-5-5---5---5--|-2---------------------
-1-1-1-1-1-1---------------------------------4--------|-0---------------------
                                                    x2  3:07

-------------------0----------------------------0---------------2-------------
-----------------------0----------------------------0-------0-----------------
---/4----------------------0----------------------------4---------------------
--//2-----5--------------------5---5---4--------------------------------------
-//-------3--------------------3---3---3--------------------------------------
-/----------------------------------------------------------------------------
 3:18 - 4:21

-------------------0---------------------------0-----------2------------------
-----------------------0---------------------------0-----------0--------------
---/4-----5----------------0---------------------------4----------------------
--//2-----3--------------------5---5---4--------------------------------------
-//----------------------------3---3---3--------------------------------------
-/----------------------------------------------------------------------------
                                           ^this ending is used from here on^

-------------------0-----------------------0----------------------------------
-----------------------0---1-------1---0---0---1---0--------------------------
-7---7---5--5------------------0---0---0---0---0---0--------------------------
-5---5---5--2----------------------2---2---2---2---2---2----------------------
-3---3---3--0----------------------0---0---0---0---0---2----------------------
-------------------------------------------------------0----------------------
                                                           end1

-------------------0-------------------0-----------------------0--------------
------------0----------0---1-------0-------0---1-------------------0----------
-7---7---5--0------------------0---0---------------0---2---------------2------
-5---5---4--2----------------------2-------------------3-------------------3--
-3---3---3--0----------------------0-------------------3-------------------3--
-------------------------------------------------------1-------------------1--
                                                           end2

--------0---------------|-----------------------------------------------------
------------0-----------|-----------------------------------------------------
----------------2-------|-----------------------------------------------------
--3-3---------------3---|-----------------------------------------------------
--3-3-------------------|-----------------------------------------------------
--1-1-------------------|-0-0-0-0-0-0-0-0-0-0-0-0-0-0-0-0-0-0-0-0-0-0-0-0-0---
                          4:28 - 4:30

------------------------------------------------------------------------------
------------------------------------------------------------------------------
------------------------------------------------------------------------------
-------------------------------------------------------------------------6----
-------------------------------------------------------------------------5----
-4--4-4-4-4-4--4-4-4-4-4--4-4-4-4-4--4-4-4-4-4--4-4-4-4-4--4-4-4-4-4-4-4------
 4:30 - 4:59                                                               A

------------------------------------------------------------------------------
------------------------------------------------------------------------------
------------------------------------------------------------------------------
-------6-----------------------------------------------------6---------6------
-------5-----------------------------------------------------5---------5------
-4-4-4-----4--4-4-4-4-4--4-4-4-4-4--4-4-4-4-4--4-4-4-4-4-4-4-----4-4-4--------


------------------------------------------------------------------------------
------------------------------------------------------------------------------
------------------------------------------------------------------------------
------------------6-----------------------------------------------------------
------------------5-----------------------------------------------------------
-4--4-4-4-4-4-4-4----7--7-7-7-7-7--7-7-7-7-7--7-7-7-7-7--7-7-7-7-7--7-7-7-7---


------------------------------------------------------------------------------
------------------------------------------------------------------------------
------------------------------------------------------------------------------
------------------9---------9-------------------------------------------------
------------------8---------8-------------------------------------------------
-7--7-7-7-7-7-7-7-----7-7-7-----7--7-7-7-7-7--7-7-7-7-7--7-7-7-7-7--7-7-7-7---


---------------------|---|----------------------|-----------------------------
---------------------|---|----------------------|-----------------------------
---------------------|---|----------------------|-----------------------------
-------9---------9---|---|------------------4---|-----------------------------
-------8---------8---|---|------------------5---|-----------------------------
-7-7-7-----7-7-7-----|---|-4--4-4-4-4-4-4-4-----|-----------------------------
                       A   4:59 - 5:01

------------------------------------------------------------------------------
---------------------------------------------------------13*17*13*17----------
----------------------------------------------14*16*14*16---------------------
-----------------------------------14*15*14*15--------------------------------
------------12*14*12*14*12/15*14*15-------------------------------------------
-12*13*12*13------------------------------------------------------------------
 5:01 - 5:42 Tommy's Solo

-13*17*13*17*13*16*13*16*13\12*13*12*13*12------------------------------------
------------------------------------------15b18r15b18r15b18r15b18r15b18-------
------------------------------------------------------------------------------
------------------------------------------------------------------------------
------------------------------------------------------------------------------
------------------------------------------------------------------------------


------------------------------------------------------------------------------
-12h15p12\------/|------/\------\---ph----------------------------------------
----------\----/-|-----/--\----/-\--14\-----------------------11h12h14p12p11--
-----------\--/--|----/----\--/---\----\--14---12-11h12h14-p12----------------
------------\/----\--/------\/-----\----\-------------------------------------
-------------------\/--------------------\------------------------------------
              bar abuse

---------------12h15p12/14-17p15p14h15-14b16---r-b16-r-b15rb15rb15rb15r15b----
----12h15p12h15---------------------------------------------------------------
-h14--------------------------------------------------------------------------
------------------------------------------------------------------------------
------------------------------------------------------------------------------
------------------------------------------------------------------------------


-20-p17p16h17p20p17p16--------------------------------------------------------
----------------------20p19p17\16h17h19p17p16\14h17p16p14\13*14*13*14*13*14---
------------------------------------------------------------------------------
------------------------------------------------------------------------------
------------------------------------------------------------------------------
------------------------------------------------------------------------------


------------------------------------------------------------------------------
-11*14*11---------------------------------------------------------------------
------------------------------------------------------------------------------
----------------------------------------------------------10-11-13-11-10------
------------------9-11-12-11-9-------------9-11-12-9-11-12--------------12----
----------9-11-12--------------12-9-8-9-11------------------------------------


------------------------------------------------------------------------------
-------------------------------------------------------13-14-16-14-13-14-16---
-------------------11-13-14-13-11--------------11-13-14-----------------------
-----------10-11-13--------------13-11-10-11-13-------------------------------
-11-9-11-12-------------------------------------------------------------------
------------------------------------------------------------------------------


-14-16-17-14-17/21b23-----r21v----\-------------------------------------------
-----------------------------------14-16-17-----------------------------------
--------------------------------------------13v----/----12--b-13---r12b13r12--
------------------------------------------------------------------------------
------------------------------------------------------------------------------
------------------------------------------------------------------------------


-----------------------------------------------------------14p11h13p11--------
--------------------------------14b16-------16r14-11----11--------------------
-b13r12b13-11-9-8-8-9--------------------------------13-----------------------
----------------------9-11v---------------------------------------------------
------------------------------------------------------------------------------
------------------------------------------------------------------------------


------------------------------------------------------------------------------
-11h14p13p11h13p11------------------------------------------------------------
------------------13b15-r13-11-13b15-13*11*13*11*13*11\10*11*10-10-8-7-8------
------------------------------------------------------------------------------
------------------------------------------------------------------------------
------------------------------------------------------------------------------


------------------------16p12------12h16p12------12h16p12------12h16t21-------
-----------------------------14--14--------14--14--------14--14---------------
-10b11-r10-8-10*8*10\----------13------------13------------13-----------------
------------------------------------------------------------------------------
------------------------------------------------------------------------------
------------------------------------------------------------------------------


-p16----16b19---r16--12-------------------------------------------------15----
-------------------------14-14b16-r-14b16r14b16r14v------15b17---r16b17-------
------------------------------------------------------------------------------
------------------------------------------------------------------------------
------------------------------------------------------------------------------
------------------------------------------------------------------------------


------------------------------------------------------------------------------
-r15---15*12*15*12*15*12*15*12*15*12*15*12-11b12-11b12------------------------
-------------------------------------------------------11b12-11b12-11h12h14---
------------------------------------------------------------------------------
------------------------------------------------------------------------------
------------------------------------------------------------------------------


------------------------------------------------------------------------------
----------------------------------------------------------ph------------------
-p12p11------------------------------------------11h12h14-12b14r12b16r12------
-------14p12p11h12h14p12p11--------------11h12h14-----------------------------
---------------------------14p12p10h12h14-------------------------------------
------------------------------------------------------------------------------


------------------------------------------------------------------------------
------------------------------------------------------------------------------
------------------------------------------------------------------------------
------------------------------------------------------------------------------
-------------------------------------------------------------------------8----
-0--0-0-0-0-0--0-0-0-0-0--0-0-0-0-0--0-0-0-0-0--0-0-0-0-0--0-0-0-0-0-0-0-6----
 5:01 - 5:42 Rhythm

------------------------------------------------------------------------------
------------------------------------------------------------------------------
------------------------------------------------------------------------------
------------------------------------------------------------------------------
-------8---------------------------------------------------8---------8--------
-0-0-0-6---0--0-0-0-0-0--0-0-0-0-0--0-0-0-0-0--0--0--0-0-0-6---0-0-0-6---0----


------------------------------------------------------------------------------
------------------------------------------------------------------------------
------------------------------------------------------------------------------
------------------------------------------------------------------------------
---------------8--------------------------------------------------------------
-0-0-0-0-0-0-0-6---4--4-4-4-4-4--4-4-4-4-4--4-4-4-4-4--4-4-4-4-4--4-4-4-4-4---


------------------------------------------------------------------------------
------------------------------------------------------------------------------
------------------------------------------------------------------------------
---------------7---------7----------------------------------------------------
---------------5---------5----------------------------------------------------
-4-4-4-4-4-4-4-----4-4-4-----4--4-4-4-4-4--4-4-4-4-4--4-4-4-4-4--4-4-4-4-4-4--


----------------------------------------|-------------------------------------
----------------------------------------|-------------------------------------
----------------------------------------|-------------------------------------
-----7---------7--------------------7---|-6----------5----------4----------3--
-----5---------5--------------------5---|-4--4-4-4-4-3--3-3-3-3-2--2-2-2-2-1--
-4-4-----4-4-4-----4--4-4-4-4-4-4-4-----|-------------------------------------
                                          5:21 - 5:42             A

---------|--------------------------------------------------------------------
---------|--------------------------------------------------------------------
---------|--------------------------------------------------------------------
---------|-8----------7----------6----------5----------8--8------7--7------6--
-1-1-1-1-|-6--6-6-6-6-5--5-5-5-5-4--4-4-4-4-3--3-3-3-3-6--6--6-6-5--5--5-5-4--
---------|--------------------------------------------------------------------


------------------|---|-------------------------------------------------------
------------------|---|-------------------------------------------------------
------------------|---|-------------------------------------------------------
-6------5--5------|---|-9----------8----------7----------6----------9--9------
-4--4-4-3--3--3-3-|---|-7--7-7-7-7-6--6-6-6-6-5--5-5-5-5-4--4-4-4-4-7--7--7---
------------------|---|-------------------------------------------------------
                    A

--------------------------------|---------------------------------------------
--------------------------------|---------------------------------------------
--------------------------------|---------------------------------------------
---8--8------7--7------6--6-----|---2-----------------------------------------
-7-6--6--6-6-5--5--5-5-4--4-4-4-|---2-----------------------------------------
--------------------------------|---0-----------------------------------------
                                   7:03

  Visit MetalTabs.com for more metal tablature

bottom separator

Contact Us | Privacy Policy | Disclaimer | Legal Notice
Copyright © 2001-2014 MetalTabs.com. All Rights Reserved.