top separator

Home

Forum

What's New

Submit a Tab

FAQ

Links

Contact Us

Link to Us

MuSpy.com

MetalTabs.com logo

Bands

0-9

A

B

C

D

E

F

G

H

I

J

K

L

M

N

O

P

Q

R

S

T

U

V

W

X

Y

Z

Search

What

Where
 

Coroner - "Semtex Revolution" Guitar Tab

Plain Text Version
More Coroner Tabs

Hits: 5391
Rated: 4.67 out of 5 (3 votes)
Updated: 2006-08-31 08:07:53

 

By:

Sycophant

sendpm.gif

email.gif

Important note
We did our best to reach Coroner and ask for their permission to publish this tab. Unfortunately they did not respond to our requests or we could not find a way to contact them. This tab is available online until Coroner tells us to take it down.


#----------------------------------PLEASE NOTE---------------------------------#
#This file is the author's own work and represents their interpretation of the #
#song. You may only use this file for private study, scholarship, or research. #
#Unless specified otherwise, this is NOT an official tab from the band members.#
#------------------------------------------------------------------------------#

  Visit MetalTabs.com for more metal tablature
  
Author/Artist: Coroner
Title: Semtex Revolution
Album: Mental Vortex [1991 Noise Records/BMG]
Transcribed by: Greg D. [Sycophant]
Email: sentience666@hotmail.com

Tune To Eb.

----------------------------------------|-------------------------------------
----------------------------------------|-------------------------------------
----------------------------------------|-------------------------------------
-------------------------------------5--|-------------------------------------
-4-4-4-4-4-4-7--4-4-4-4-4-4-7--4-4-4-3--|-4-4-4-4-4-4-7--4-4-4-7--8--6--------
-2-2-2-2-2-2-5--2-2-2-2-2-2-5--2-2-2----|-2-2-2-2-2-2-5--2-2-2-5--6-----------
 0:00 - 0:20                          x3                             p.h.

------------------------------------------------------------------------------
------------------------------------------------------------------------------
----------------------------5-------------------------------------------------
---4-----4------------4-------4----4-----4------------4-----5-----------------
-----3----------3-3-----3------------3----------3-3-----3---3-----------------
-------2---2--------2-----2------------2---2--------2-----2-------------------
 0:20 - 0:28                                                  x2

------------------------------------------------------------------------------
------------------------------------------------------------------------------
------4----2----6----4--------4----2----5---4---------------------------------
-5-2----2----2----2------5-2----2----2----2-----------------------------------
------------------------------------------------------------------------------
------------------------------------------------------------------------------
 0:46 - 0:53                                   x2

------------------------------------------------------------------------------
------------------------------------------------------------------------------
------------------------------------------------------------------------------
-4--4--4-4----4--4--4-4----4--4--4-4----4--4--4-4-----------------------------
-3--3--3-3----3--3--3-3----3--3--3-3----3--3--3-3--4\3--3--3--3---------------
-2--2--2-2----2--2--2-2----2--2--2-2----2--2--2-2--2\1--1--1--1---------------
 0:53 - 1:11                                                    x2

------------------------------------|-----------------------------------------
------------------------------------|-----------------------------------------
------------------------------------|-----------------------------------------
------------------------------------|-----------------------------------------
-2------------4--5--4---------------|2-----------4--5--4-------------5--------
-0------------2--3--2---------------|0-----------2--3--2-------------3--------
 1:36 - 2:10 Guitar I electric                                          x2

------------------------------------|-----------------------------------------
------------------------------------|---0---0---------------------------------
------0--0--0---------0--0--0--0--0-|--0-00--0--0--------0--0--0--0--0--------
-------4--4--4---------4--4--4--4--4|-4----4--4---------4-4--4--4--4--4-------
---2----2--2------------4--4--4--4--|----------2-----------4--4--4--4---------
------------------------------------|0----------------------------------------
 1:36 - 2:10 Guitar II acoustic                                         x2

-------------------------------|----------------------------------------------
-------------------------------|----------------------------------------------
-------------------------------|----------------------------------------------
-------------------------------|----------------------------------------------
-----1-2-1-0-------1-2-1-0---3-|-----3-4-3-2-0-----3-4-3-2-0-5----------------
-3-0---------3-3p0---------3-1-|-5-2-----------5p2-----------3----------------
 2:10 - 2:19                 x4  2:19 - 2:27                   x4

---------ph--ph----------ph---ph----12--p10p8h10---ph-------0-0-0-0-0-0-0-0---
---------19--19b20--19---17---15---/----------\/----7-------------------------
---16----/---------/-----/---/----/-------------------------------------------
--/---------------/---------/-------------------------------------------------
-/----------------------------------------------------------------------------
------------------------------------------------------------------------------
 2:36 - 3:12 Tommy's Solo                     *                   fade out

* = flick the bar 'Vai'-style for that 'purring' sound.

------------------------------------------------------------------------------
------------------------------------------------------------------------------
-------------------------------------------------------11----------------11---
-12-14-14-14-14-12-14-12-12-14-14-14-14-14-12-10-12-14----14-12-10h12h14------
------------------------------------------------------------------------------
------------------------------------------------------------------------------
 trem pick

------------------------------------------------------------------------------
------------------------------------------------------------------------------
-h12-14-12-11----------------------------------11----------------11h12h14-----
--------------14-12-10----------------10-12-14----14-12-10-12-14--------------
-----------------------14-12-10-12-14-----------------------------------------
------------------------------------------------------------------------------


----------------10-12-10-15\-0------------------------------------------------
----------12-13----------------13h15p13p12------------------------------------
-11h12h14----------------------------------14p12p11h12h14p12p11---------------
----------------------------------------------------------------14p12p10------
------------------------------------------------------------------------------
------------------------------------------------------------------------------


------------------------------------------------------------------------------
------------------------------------------------------------------------------
-------------------------------------------------------------11h12h14---------
----------------------------------10----------------10h12h14------------------
-14p12p10----------------10h12h14----14-12-10-12-14---------------------------
----------14p12p10h12h14------------------------------------------------------


----------12-14b16--------b17-r14--16---14---18---16---19---18---19/21---19---
-10h12h13---------------------------------------------------------------------
------------------------------------------------------------------------------
------------------------------------------------------------------------------
------------------------------------------------------------------------------
------------------------------------------------------------------------------


-18-------------------------------------------19------p18p16h18p16------------
-----19------------------------------------19---------------------------------
---------18------------------------------20-----------------------------------
-------------21--20-b-21-r-20----------20-------------------------------------
-------------------------------21-19-21---------------------------------------
------------------------------------------------------------------------------


-----------------------------------------------16------------16---------------
-19p17h19p17-16h17p17--------16-19p16--------16--19p16-----16--19p16-----16---
----------------------18b20-----------rb18b20---------18b20---------18b20-----
------------------------------------------------------------------------------
------------------------------------------------------------------------------
------------------------------------------------------------------------------
                             hold bend

-16----------------------------------------16-16-16-16-18-19-18-16------------
----19p16----16-19-19b21--19b21r19b21-\----------------------------19-17-16---
----------18------------------------------------------------------------------
------------------------------------------------------------------------------
------------------------------------------------------------------------------
------------------------------------------------------------------------------
                                           trem pick

------------------------------------------------------------------------------
-17-19-17-16------------------------------------------------------------------
-------------18-16-15-16-18-16-15---------------------------------------------
----------------------------------18-16-14------------------------------------
-------------------------------------------18-16-14-------------------14h16h--
----------------------------------------------------18-16-14-14h16h18---------


------------------------------------------------------------------------------
----------------------------------------------19b21---b22r19b21r19-16h19h21---
----------------------------------15h16h18/20---------------------------------
----------------14-16-18-14h16h18---------------------------------------------
-18p16p14h16h18---------------------------------------------------------------
------------------------------------------------------------------------------


----------------------------------------------------------------------9/11----
-t24p21p19p16\14h16h19t21p19p16p14\12h14h16t19p16p14p12\11h12t17p12\9-9/11----
------------------------------------------------------------------------------
------------------------------------------------------------------------------
------------------------------------------------------------------------------
------------------------------------------------------------------------------


----------------------11--14--12--14--12p11h12p11-----------------------------
--11-\-9-\-7-/-9--12------------------------------14-12-11-14-12-11-15b17v----
------------------------------------------------------------------------------
------------------------------------------------------------------------------
------------------------------------------------------------------------------
------------------------------------------------------------------------------


------------------------------------------------------------------------------
------------------------------------------------------------------------------
------------------------------------------------------------------------------
------------------------------------------------------------------------------
-2---2-2-2-2-2---2-2-2-2-2---2-2-2-2-4----5----4---4-4-4-4-4---4-4-4-4-4------
-0---0-0-0-0-0---0-0-0-0-0---0-0-0-0-2----3----2---2-2-2-2-2---2-2-2-2-2------
  2:36 - 2:54

-------------------|-------------------|--------------------------------------
-------------------|-------------------|--------------------------------------
-------------------|-------------------|--------------------------------------
-------------------|-------------------|--------------------------------------
-4-4-4-4-4-4-4-5---|-4-4-4-4-4-4-5-----|-5-5-5-5-5-5-7-7-7-7-7-7--------------
-4-2-2-2-2-2-2-3---|-2-2-2-2-2-2-3-----|-3-3-3-3-3-3-5-5-5-5-5-5--------------
             end1,3                end2                         end4

---------------------------------------------------------------|--------------
---------------------------------------------------------------|--------------
---------------------------------------------------------------|--------------
---------------------------------------------------------------|--------------
-6---6-6-6-6-6---6-6-6-6-6---6-6-6-6-6-6-6-6-6-6-4---4-4-4-4-4-|-4-4-4-4-4----
-4---4-4-4-4-4---4-4-4-4-4---4-4-4-4-4-4-4-4-4-4-2---2-2-2-2-2-|-2-2-2-2-2----
 2:54 - 3:12

-------------------|-----------------------------|----------------------------
-------------------|-----------------------------|----------------------------
-------------------|-----------------------------|----------------------------
-------------------|-----------------------------|----------------------------
-4-4-4-4-4-4-4-5---|-4-4-4-4-5-5-5-5---9-9-9-9---|----------------------------
-2-2-2-2-2-2-2-3---|-2-2-2-2-3-3-3-3---7-7-7-7---|----------------------------
         end1,3                           end2,4

------------------------------------------------------------------------------
------------------------------------------------------------------------------
----------------------------------------------4---3---------------------------
------------3/4------------3/4------------3/4---------5-----------------------
-2--2--3--2-1/2-3--3--4--3-1/2-2--2--3--2-1/2-2---1---------------------------
-0--0--1--0-----1--1--2--1-----0--0--1--0-------------3-----------------------
 3:12 - 3:22                                            x2

					3:22 - 3:46
					-----------
There's ALOT going on in this section.
There are 3 guitars going on at one time.
I have dissected each lick Tommy plays as licks A,B,C,D and D2.
I will show you what correct order they are played afterwards.
Use sweep [economy] picking to play these licks.

-------------13---------------------------|--------7--------------------------
-13p10--10h13--13p10--10h13p10--10h13p10--|-7p4-4h7-7p4-4h7p4-4h7p4-----------
------10------------10--------10--------10|----4-------4-----4-----4----------
------------------------------------------|-----------------------------------
------------------------------------------|-----------------------------------
------------------------------------------|-----------------------------------
 Guitar 1                              A                             B

-----------10-------------------|-------------16------------------------------
--10p7-7h10--10p7-7h10p7-7h10p7-|-16p13--13h16--16p13--13h16p13--13h16p13-----
------7----------7------7------7|------13------------13--------13--------13---
--------------------------------|---------------------------------------------
--------------------------------|---------------------------------------------
--------------------------------|---------------------------------------------
                             C                                             D

-------------------------------|----------------------------------------------
-------------------------------|----------------------------------------------
----------10-------------------|----------------------------------------------
-10p7-7h10--10p7-7h10p7-7h10p7-|----------9-----------------------------------
-----8----------8------8------8|-9p6---6h9-9p6---6h9p6---6h9p6----------------
-------------------------------|-----7---------7-------7-------7--------------
 Guitar 2                   A                                    B

----------------------------------|-------------------------------------------
----------------------------------|-------------------------------------------
-----------7----------------------|-------------13----------------------------
-7p4---4h7---7h4---4h7p4---4h7p4--|-13p10--10h13--13p10--10h13p10--10h13p10---
-----5-----------5-------5-------5|------11------------11--------11--------11-
----------------------------------|-------------------------------------------
                               C                                           D

-----------------|-----------------|-----------------|------------------------
-----------------|-----------------|-----------------|------------------------
-5-5--5--5-5--5--|-----------------|-----------------|------------------------
-3-3--3--3-3--3--|-4-4--4--4-4--4--|-7-7--7--7-7--7--|------------------------
-----------------|-2-2--2--2-2--2--|-5-5--5--5-5--5--|-6-6--6--6-6--6---------
-----------------|-----------------|-----------------|-4-4--4--4-4--4---------
 Guitar 3      A                 B                 C                  D

					Lick Order
					----------
A
B
C
D
A
B
C
D
C
D2 [GUITAR 1 ONE OCTAVE DOWN SAME PATTERN @ 1ST FRET, GUITAR 2 PLAYS SAME]
			LIKE THIS:

----------------4------------------------------------
--4-p-1---1-h-4---4-p-1---1-h-4-p-1---1-h-4-p-1------
--------1---------------1-----------1-----------1----
-----------------------------------------------------
-----------------------------------------------------
-----------------------------------------------------
					Lick D2
B
A
C
D2
B
A
---------

-ph-------|-------------------------------------------------------------------
-11/------|-------------------------------------------------------------------
----------|-------------------------------------------------------------------
----------|---3---2-----------------------------------------------------------
----------|---1---2-----------------------------------------------------------
----------|---1---0-----------------------------------------------------------
3:46 w/bar  5:18 - END

  Visit MetalTabs.com for more metal tablature

bottom separator

Contact Us | Privacy Policy | Disclaimer | Legal Notice
Copyright © 2001-2014 MetalTabs.com. All Rights Reserved.