top separator

Home

Forum

What's New

Submit a Tab

FAQ

Links

Contact Us

Link to Us

MuSpy.com

MetalTabs.com logo

Bands

0-9

A

B

C

D

E

F

G

H

I

J

K

L

M

N

O

P

Q

R

S

T

U

V

W

X

Y

Z

Search

What

Where
 

Coroner - "Sirens" Guitar Tab

Plain Text Version
More Coroner Tabs

Hits: 4791
Rated: 4.25 out of 5 (4 votes)
Updated: 2006-08-31 07:58:39

 

By:

Sycophant

sendpm.gif

email.gif

Important note
We did our best to reach Coroner and ask for their permission to publish this tab. Unfortunately they did not respond to our requests or we could not find a way to contact them. This tab is available online until Coroner tells us to take it down.


#----------------------------------PLEASE NOTE---------------------------------#
#This file is the author's own work and represents their interpretation of the #
#song. You may only use this file for private study, scholarship, or research. #
#Unless specified otherwise, this is NOT an official tab from the band members.#
#------------------------------------------------------------------------------#

  Visit MetalTabs.com for more metal tablature
  
Author/Artist: Coroner
Title: Sirens
Album: Mental Vortex [1991 Noise Records/BMG]
Transcribed by: Greg D. [Sycophant]
Email: sentience666@hotmail.com

Tune to Eb.

------------------------------------------------------------------------------
------------------------------------------------------------------------------
----------------------------------------------------------------------5/6\5---
----------4--------5--------------4--------5--3-----------4--------5----------
----------------------------------------------1-------------------------------
-0-0-0-2-----0--3-----0--0-0-0-2-----0--3--------0-0-0-2-----0--3-------------
 0:00 - 0:21

------------------|------0--------0--0---------0--------0--0--0------0--------
------------------|-------0--------0--0-0-------0--------0--0---------0-------
-4--5----2--4--5--|-3------3-4------4--4--8------8-6------6--6--9-------11----
------------------|-4--------5------------9--------7------------9-------12----
------------------|-4--------5------------9--------7------------7-------12----
------------------|-2--------3------------7--------5--------------------10----
                x4  0:21 - 0:32

-0---0----------0--------0-------|----------------------------0---------------
--0---0--0----0----0----0-0------|------------------------------6-------------
---11--11--8---8-8--6--6---6-----|--------------------------7-----7-----------
-----------9--------7--------5---|---------7/9-9/12---------------------------
-----------9--------7--------5---|-2-2-2-2-5/7-7/10-2-2-2-2---------2-2-2-2---
-----------7--------5--------3---|-0-0-0-0----------0-0-0-0---------0-0-0-0---
                                   0:32 - 0:53

------------0-------------|---------------------------------------------------
--------------6-----------|---------------------------------------------------
----------7-----7---------|-------------10----13------------------------------
-7/9-9/12-----------------|---9----12-8----11-----------------12----15--------
-5/7-7/10------------3----|-7---10----------------11----14-10----13-----------
---------------------1----|---------------------9----12-----------------------
                        x4  0:53 - 0:56

------------------------------------------------------------------------------
------------------------------------------------------------------------------
---------------------------------------------------9/10----9/10-14\13---------
-------10-9---9-8---8-7---7\5-5-----10-9---9-8--------------------------------
-------7--7---7-7---7-7---7\5-5-8---7--7---7-7-----7/8-----7/8--12\11---------
-0-0-0------0-----0-----0-------8-0------0-----0-0-----0-0--------------------
 0:56 - 1:01

-----------------|------------------------------------------------------------
-----------------|------------------------------------------------------------
-9/10------9/10--|------------------------------------------------------------
-----------------|------------------------------------------------------------
-7/8-------7/8---|-7-------------------------------7--------------------------
-----0-0-0-------|---7-6-5-0-3-0-7-0-6-3-0-7-6-5-3---7-6-5-3-0-7-0-6-3-0-7-6--
 1:08 - 1:09       1:57 - 2:02

-------|----------------------------------------------------------------------
-------|----------------------------------------------------------------------
-------|----------------------------------------------------------------------
-------|-4---4-----4---4---2-----4---5---4---4-----4---4---2-----4---5--------
-------|-3-3-3-3-3-3-3-3-3-3-3-3-3-3-3-3-3-3-3-3-3-3-3-3-3-3-3-3-3-3-3--------
-5-3-2-|----------------------------------------------------------------------
         2:02 - 2:07

---------------------------------|--------------------------------------------
---------------------------------|--------------------------------------------
---------------------------------|--------------------------------------------
---------------------------------|-4---4-----4---4---2-----4---5---4---4------
-------3-----1---------3-----3---|-3-3-3-3-3-3-3-3-3-3-3-3-3-3-3-3-3-3-3-3-3--
-0---0---1-0---1-0---0---1-0---1-|--------------------------------------------
 2:07 - 2:13                   x2  2:13 - 2:18

-------------------|-----------------------------------------------|----------
-------------------|-----------------------------------------------|----------
-------------------|-----------------------------------------------|----------
-4---4-7-----7---7-|-9------------------10-9-----------------------|-2--------
-3-3-3-5-5-5-5-5-5-|-7---9---8---7---5--8--7---9---8---7---5--5----|-2--------
-------------------|-----7---6---5---3---------7---6---5---3--3----|-0--------
                     2:18 - 2:28                                x2

------------------------------------------------------------------------------
------------------------------------------------------------------------------
------------------------------------------------------------------------------
-------5-------------------------------5--------------------------------------
-7-------7---5-----7---5-7-8-----7-------7---5-----3-----1-1------------------
---6-0-----0---3-0---0-------0-----6-0-----0---3-0---3-0----------------------
 2:28 - 2:33

------------------------------------------------------------------------------
------------------------------------------------------------------------------
------------------------------------------------------------------------------
-----------5-------------------------------5-----------------1-1--------------
-----7-------7---5-----7---5-7-8-----7-------7---5-----3----------------------
-0-----6-0-----0---3-0---0-------0-----6-0-----0---3-0---3-0------------------
 2:33 - 2:38

-------------------------------------------------|----------------------------
-------------------------------------------------|----------------------------
-----------5-------------------------------5-----|----------------------------
-----7-------7---5-----7---5-7-8-----7-------7---|-5-----3-----1--------------
-0-----6-0-----0---3-0---0-------0-----6-0-----0-|---3-0---3-0---3-0----------
-------------------------------------------------|----------------------------
 2:38 - 2:48                                       end1

-------------------|--------------------------------------|-------------------
-------------------|--------------------------------------|-------------------
-------------------|--------------------------------------|-------------------
-5-----3-----1-1-1-|--------------------------------------|-------------------
---3-0---3-0-------|-----------------------6-7------------|-3-2-0-2-0---------
-------------------|-0---2---3---5-5/6-6/7-----0---2---3--|-----------3-------
 end 2               2:48 - 2:59                           end 1

-------------|----------------------------------------------------------------
-------------|----------------------------------------------------------------
-------------|----------------------------------------------------------------
-------------|-----------------------6-7--------------3-2-0-2-----0---2---3---
-3-2-0-2-1---|-0---2---3---5-5/6-6/7-----0---2---3------------3---------------
-------------|----------------------------------------------------------------
 end 2         2:59 - 3:10

---------------------------------------|--------------------------------------
---------------------------------------|--------------------------------------
------------6-7--------------3-2-0-2---|--------------------------------------
--5-5/6-6/7-----0---2---3------------3-|-2---2-----2---2---2-----3---3---2----
---------------------------------------|-1-1-1-1-1-1-1-1-1-1-1-1-1-1-1-1-1-1--
---------------------------------------|--------------------------------------
                                         3:10 - 3:30

-----------------------------|-----------------|------------------------------
-----------------------------|-----------------|------------------------------
-----------------------------|---3-----2-------|------------------------------
-2-----2---2---3-----3-3-3-0-|-0---3-0---3-0---|-2---2-----2---2---2-----3----
-1-1-1-1-1-1-1-1-1-1-1-1-1---|-----------------|-1-1-1-1-1-1-1-1-1-1-1-1-1-1--
-----------------------------|-----------------|------------------------------
                                             x4

------------------------------------------------------------------------------
------------------------------------------------------------------------------
------------------------------------------------------------------------------
-3---2---2-----2---3---3-----3---3-2---2-----2---0---0-----0---0---2---2------
-1-1-1-1-1-1-1-1-1-1-1-1-1-1-1-1-1-3-3-3-3-3-3-3-3-3-3-3-3-3-3-3-3-3-3-3-3-3--
------------------------------------------------------------------------------


---------------------|------------------------------------|-------------------
---------------------|------------------------------------|---------/\--------
---------------------|------------------------------------|--------/--\-------
-2---2---2-----2---2-|----------5-----------------------9-|--------\---/------
-3-3-3-3-3-3-3-3-3-3-|----7-------7----5-----7---5-7-8--7-|--------\--/-------
---------------------|-0----6-0-----0----3-0---0--------0-|---------\/--------
                       4:51 - 4:56

  Visit MetalTabs.com for more metal tablature

bottom separator

Contact Us | Privacy Policy | Disclaimer | Legal Notice
Copyright © 2001-2014 MetalTabs.com. All Rights Reserved.