top separator

Home

Forum

What's New

Submit a Tab

FAQ

Links

Contact Us

Link to Us

MetalTabs.com logo

Bands

0-9

A

B

C

D

E

F

G

H

I

J

K

L

M

N

O

P

Q

R

S

T

U

V

W

X

Y

Z

Search

What

Where
 

Coroner - "Metamorphosis" Guitar Tab

Plain Text Version
More Coroner Tabs

Hits: 4703
Rated: 4.67 out of 5 (6 votes)
Updated: 2006-08-31 07:58:14

 

By:

Sycophant

sendpm.gif

email.gif

Important note
We did our best to reach Coroner and ask for their permission to publish this tab. Unfortunately they did not respond to our requests or we could not find a way to contact them. This tab is available online until Coroner tells us to take it down.


#----------------------------------PLEASE NOTE---------------------------------#
#This file is the author's own work and represents their interpretation of the #
#song. You may only use this file for private study, scholarship, or research. #
#Unless specified otherwise, this is NOT an official tab from the band members.#
#------------------------------------------------------------------------------#

  Visit MetalTabs.com for more metal tablature
  
Author/Artist: Coroner
Title: Metamorphosis
Album: Mental Vortex [1991 Noise Records/BMG]
Transcribed by: Greg Danielak [Sycophant]
Email: sentience666@hotmail.com

Tune To Eb.

------------------------------------------------------------------------------
------------------------------------------------------------------------------
------------------------------------------------------------------------------
-9-----9-----9-----9-----9/10-7---9-----9-----9/10-7---9/10-7-------------9---
-7-----7-----7-----7-----7/8--5---7-----7-----7/8--5---7/8--5---3---2-----7---
---0-0---0-0---0-0---0-0------------0-0---0-0--------0--------0-1---0-0-0-----
 0:16 - 0:37

------------------------------------------------------------------------------
------------------------------------------------------------------------------
------------------------------------------------------------------------------
-----9-----9-----9/10-7---9-----9-----9/10-7---9/10-7-------------5-----5-----
-----7-----7-----7/8--5---7-----7-----7/8--5---7/8--5---3---2-----7-----7-----
-0-0---0-0---0-0------------0-0---0-0-----------------0-1---0-0-0---0-0---0-0-


------------------------------------------------------------------------------
------------------------------------------------------------------------------
------------------------------------------------------------------------------
-5-----5-/7\5---5-----5-----5/7\5---5/7\5-------------9-----9-----9-----9/10--
-7-----7-/9\7---7-----7-----7/9\7---7/9\7---3---2-----7-----7-----7-----7/8---
---0-0------------0-0---0-0---------------0-1---0-0-0---0-0---0-0---0-0-------


---------------------------------------|--------------------------------------
---------------------------------------|--------------------------------------
---------------------------------------|--------9-----9-----9-----7-----------
-7---9-----9-----9/10-7---9/10-7-------|---10-9---9-----9-----9-----8---------
-5---7-----7-----7/8--5---7/8--5---3---|-7----------7-----7-----7-----10-8-7--
-------0-0---0-0--------0--------0-1---|--------------------------------------
                                         0:37 - 0:47

------------------------------------|-----------------------------------------
------------------------------------|-----------------------------------------
------10-----9-----9-----7----------|-----------------------------------------
-10-9----9-----9-----9-----8--------|-9-----9-----9-----9-----9/10-7---9------
-----------7-----7-----7-----10-8-7-|-7-----7-----7-----7-----7/8--5---7------
------------------------------------|---000---0-0---000---0-0------------000--
                                      0:47 - 0:58

------------------------------------------------------------------------------
------------------------------------------------------------------------------
------------------------------------------------------------------------------
-9-----9/10-7---9/10-7-------------5-----5-----5-----9/10-7---9-----5-----9/--
-7-----7/8--5---7/8--5---3---2-----7-----7-----7-----7/8--5---7-----7-----7/--
---0-0--------0--------0-1---0-000---0-0---0-0---0-0------------000---0-0-----


---------------------|--------------------------------------------------------
---------------------|--------------------------------------------------------
---------------------|-3-----3---------3-----3---------3-----3---------3------
-10-7---9/10-7-------|-3-----2---------3-----2---------3-----2---------3------
-8--5---7/8--5---3---|-1-222-1-2-2-2-2-1-222-1-2-2-2-2-1-222-1-2-2-2-2-1-222--
------0--------0-1---|---000---0-0-0-0---000---0-0-0-0---000---0-0-0-0---000--
                       0:58 - 1:07

-----------|------------|-----------------------------------------------------
-----------|------------|----5-----------5-------------------------------5----
-3---------|-3-----3----|------3---3-------3---3-------------------3-------3--
-2---------|-3-----2----|-2------2---2-------2---2---2-3-----2-------2--------
-1-2-2-3---|-1-222-1----|--------------1-----------1---1-3-2---1-------1------
---0-0-1---|---000------|--------------------------------1-0-----0------------
         x2  1:07 - 1:08  1:20 - 1:25

---------------|---------0-------------0-------------0------------0------0----
---------------|---------0-------------0-------------0------------0------0----
---3-----------|-5---4---4-----7---6---6----5----4---4----7---6---6---5----3--
-2---2---2-3---|-5---4---------7---6--------5----4--------7---6-------5----3--
-------1---1-3-|-3---2---------5---4--------3----2--------5---4-------3----1--
-------------1-|--------------------------------------------------------------
                 1:40 - 1:51

----------------------------------------------------------------|-------------
----------------------------------------------------------------|-------------
----------------------------------------------------------------|-------------
-------------------------3-3-3----------------------------------|--2----------
-2---2-2-3p2-2-5-2-222-2-1-1-1-2--22-2-2-3-2---5---7/8---8-8-8--|--2----------
-0---0-0-1p0-0-3-0-000-0-------0--00-0-0-1-0-0-3-0-5/6-0-6-6-6--|--0----------
 1:51 - 2:01                                                  x2

--------------------------------------|---------------------------------------
--------------------------------------|---------------------------------------
--------------------------------------|---------------------------------------
-----3-----2---------3-----2----------|---------------------------------------
-2---1-2-2-1-2---2---1-2-2-1-2---2----|-2-2----2-2----------------------------
-0-----0-0---0---0-----0-0---0---0----|-0-0----0-0----------------------------
 2:48 - 2:57                      x3.5

------------------------------------------------------------------------------
-16b17--v---r-14----------------------------------------------15---14-b-15-r--
-----------------16-b-18-r-b-r-b-r-16-18-16--\13-b-14-r-b-r-b-----------------
------------------------------------------------------------------------------
------------------------------------------------------------------------------
------------------------------------------------------------------------------
 2:57 - 3:25 Tommy's Solo

---------------------14-------------------------------------------------------
-b-r-b-r-b--------------17-14-------------------------------------------------
-----------16-b-18------------17-16-14-16-16b17r16-14-16b18r16-14-14h16h18----
------------------------------------------------------------------------------
------------------------------------------------------------------------------
------------------------------------------------------------------------------


---------------------------------------------------------14h21p14-------------
-17---17-19-b21--r19-19-17-19-b21---r19--17-19-b-21-r-19---------21p14h21p14--
------------------------------------------------------------------------------
------------------------------------------------------------------------------
------------------------------------------------------------------------------
------------------------------------------------------------------------------


-------------------------------------------14---------------------------------
----------------------------------------------17p14-16b17-r16-14-17-b-19-r----
-21p14h21p14-16-b-18-r-b-r-b-r-b-r-16-b-18------------------------------------
------------------------------------------------------------------------------
------------------------------------------------------------------------------
------------------------------------------------------------------------------


--------------------17-p16-14-16p14-------------------------------------------
-17-17-b-19-r-b-r-b-----------------17-17-p16p14------------------------------
------------------------------------------------------------------------------
------------------------------------------------------------------------------
------------------------------------------------------------------------------
------------------------------------------------------------------------------


------------------------------------------------------------------------------
------------------------------------------------------------------------------
-16p14p13h14h16p14p13b14r13b14r13h14h16p14------------------------------------
------------------------------------------16p14p13h14h16p14p13----------------
------------------------------------------------------------------------------
------------------------------------------------------------------------------


-------------------------------------------------------------17---------------
--------------------------------14h15h17-19--18b19-v---18b19----19-\-17-------
------------------------13h14h16----------------------------------------------
---------------12h14h16-------------------------------------------------------
-16p14p12h14h16---------------------------------------------------------------
------------------------------------------------------------------------------


-------------------19h14h17-19-17-14\13-17-14----14---------------------------
-14h16h17-12h14h16----------------------------17----17p14h17p14----14---------
----------------------------------------------------------------16----16-14---
------------------------------------------------------------------------------
------------------------------------------------------------------------------
------------------------------------------------------------------------------


------------------------------------------------------------------------------
-14-b-17----r-14------------------------------------17-v--17/19/21b22---------
----------------b16r14----14----14/16-b17-r16-16/18---------------------------
-----------------------16----16-----------------------------------------------
------------------------------------------------------------------------------
------------------------------------------------------------------------------


---------------------------------------|-12p9---------------9h12t17p12p9------
-22r21-19-21-21b22-19\17-b19r17b19r17\-|-----10-----------10------------------
---------------------------------------|-------9---------9--------------------
---------------------------------------|--------11-----11---------------------
---------------------------------------|----------12-12-----------------------
---------------------------------------|--------------------------------------
                                        3:25 - 3:39 Tommy Goes Neoclassical

---------------------------14p11-----------------11h14t19p14p11---------------
-t17p14p10----------------------12-------------12--------------t19p16p12------
----------t18p14p9----------------11---------11-------------------------------
------------------t19p14p11---------13-----13---------------------------------
--------------------------------------14-14-----------------------------------
------------------------------------------------------------------------------


-------------------15p12-----------------12h15t20p1p12------------------------
------------------------13-------------13-------------t20p17p13---------------
-t20p16p11----------------12---------12------------------------t21p17p12------
----------t21p16p13---------14-----14-----------------------------------------
------------------------------15-15-------------------------------------------
------------------------------------------------------------------------------


----------17p14-----------------14h17t22p17p14--------------------------------
---------------15-------------15--------------t22p19p15-----------------------
-----------------14---------14-------------------------t23p19p14--------------
-t22p17p14---------16-----16------------------------------------t24p19p16-----
---------------------17-17----------------------------------------------------
------------------------------------------------------------------------------


---------------|---------------------------------------------|----------------
-18\17v--------|---------------------------------------------|----------------
---------------|---------------------------------------------|----------------
---------------|----4/5---4/5------4/5---4/5------4/5---4/5--|---4/5----------
---------------|-4--2/3---2/3---4--2/3---2/3---4--2/3---2/3--|4--2/3--5--5----
---------------|-2------------0-2------------0-2------------0|2-------3--3----
                 2:57 - 3:25 Rhythm                                  reps1,3

---------------|--------------------------------------------------------------
---------------|--------------------------------------------------------------
---------------|--------------------------------------------------------------
-2--6/7--7--7--|--------------------------------------------------------------
-0--4/5--5--5--|-----5-----5---------5-----5----------7------7-----------7----
---------------|-5-9---5-9---9-5---9---5-9---5\7---11---7-11---11-7---11---7--
        reps2,4

------------------------------------------------------------------------------
------------------------------------------------------------------------------
------------------------------------------------------------------------------
--------------4/5---4/5------4/5---4/5-44----4/5---4/5------4/5---------------
----7------4--2/3-4-2/3---4--2/3-4-2/3-22-4--2/3-4-2/3---4--2/3-4-5---5-------
-11---11-7-2------2-----002------2--------2------2-----002------2-3---3-------


------------------------------------------------------------------------------
------------------------------------------------------------------------------
------------------------------------------------------------------------------
--------------------------------------------------------------------------3---
-----5-----5-------5-----5-----5------7------7--------7------7------7-3-7-----
-5-9---5-9---5-5-9---5-9---5-9---7-11---7-11---7-7-11---7-11---7-11-----------
 3:25 - 3:34

-------------------------------------------------------------|----------------
-------------------------------------------------------------|----------------
-------------------------------------------------------------|--x--\----------
-----3-------3-----3-----3-----5-----5-------5-----5-----5---|--x---\---------
-3-7---3-3-7---3-7---3-7---5-9---5-9---5-5-9---5-9---5-9---2-|--x----\--------
-----------------------------------------------------------0-|--------\-------


-------------------|-----------------|----------------------------------------
-------------------|-----------------|----------------------------------------
-------------10\---|-----------------|----------------------------------------
-------9-----8-\---|-------4-----5---|--2-------------------------------------
-2-----7-----------|-------------3---|--2-------------------------------------
-0-000---0-0-------|-0-2-2---2-2-----|--0-------------------------------------
 3:39 - 3:48    x8   3:48 - 3:53  x4    4:08                 feedback, etc.

  Visit MetalTabs.com for more metal tablature

bottom separator

Contact Us | Privacy Policy | Disclaimer | Legal Notice
Copyright © 2001-2014 MetalTabs.com. All Rights Reserved.