top separator

Home

Forum

What's New

Submit a Tab

FAQ

Links

Contact Us

Link to Us

MetalTabs.com logo

Bands

0-9

A

B

C

D

E

F

G

H

I

J

K

L

M

N

O

P

Q

R

S

T

U

V

W

X

Y

Z

Search

What

Where
 

Coroner - "Pale Sister" Guitar Tab

Plain Text Version
More Coroner Tabs

Hits: 3579
Rated: 5.00 out of 5 (2 votes)
Updated: 2006-08-31 07:57:43

 

By:

Sycophant

sendpm.gif

email.gif

Important note
We did our best to reach Coroner and ask for their permission to publish this tab. Unfortunately they did not respond to our requests or we could not find a way to contact them. This tab is available online until Coroner tells us to take it down.


#----------------------------------PLEASE NOTE---------------------------------#
#This file is the author's own work and represents their interpretation of the #
#song. You may only use this file for private study, scholarship, or research. #
#Unless specified otherwise, this is NOT an official tab from the band members.#
#------------------------------------------------------------------------------#

  Visit MetalTabs.com for more metal tablature
  
Author/Artist: Coroner
Title: Pale Sister
Album: Mental Vortex [1991 Noise Records/BMG]
Transcribed by: Greg Danielak [Sycophant]
Email: sentience666@hotmail.com

Tune To Eb.


------------------------------------------------------------------------------
------------------------------------------------------------------------------
---------7--p0----------------------------------------------------------------
-----6---------6--p0-h5-p0--------------------6-------------------------------
-8---4---------------------6--p0--h5-p0---8---4-------------------------------
-6----------------------------------------6-----------------------------------
 0:00 - 0:07

-------------------------------|----------------------------------------------
-------------------------------|----------------------------------------------
-------------------------------|----------------------------------------------
-------------------------------|---------3-----------3------------------------
-8-----8---8---8-8-----8---8-8-|-2---4-5-1-2-2-2-4-3-1------------------------
-6---0-6-0-6-0-6-6---0-6-0-6-6-|-0---2-3---0-0-0-2-3--------------------------
 0:07 - 0:11                    0:22 - 0:29             x4

------------------------------------------------------------------------------
------------------------------------------------------------------------------
------------------------------------------------------------------------------
-------------------------------------------3--5-6-----------------------------
-1--1-3-4-3-1-1--1-3-4-3-1-1--1-3-4-3-1-5--1--3-4-----3-4-3---4------3-4-3----
-3------------2------------3------------3---------3-6-------6-2--3-6-------6--
 0:29 - 0:42

----------------------|-------------------------------------------------------
----------------------|-------------------------------------------------------
----------------------|-------------------------------------------------------
-------4--5--4--------|-------------------------------------------------------
-5--6--2--3--2--6-----|-----1h2p1-------1h2p1-------1h3-----1h2p1-------------
-3--4-----------4-----|-1h3-------3p1h3-------3p1h3-----1h3-------3p1h3-------
                   x2   1:25 - 1:39

------------------------------------------------------------------------------
------------------------------------------------------------------------------
------------------------------------------------------------------------------
---------6-5------------------------------------------------------------------
-1h2p1---4-3-----1h2p1-------1h2p1-------1h3-----1h2p1-------1h2p1---4--------
-------3-----1h3-------3p1h3-------3p1h3-----1h3-------3p1h3-------3-2--------
                                                                          x2

------------10h15p10--------------------10h15----18p15------------------------
----------11--------11----------------11---------------16---------------------
--------12------------12------------12--------------------15p12h15p12---------
------12----------------12--------12----------------------------------13p8----
-10h13--------------------13p10h13--------------------------------------------
------------------------------------------------------------------------------
 1:39 - 1:52 Guitar Interlude

---------------------------------13-17-13----------13-17--|15p12--------------
-------------------------------15---------15----15--------|------13-----------
-----------------------------14--------------14-----------|---------12-9-12---
-13p8----8-----------------15-----------------------------|-------------------
------10---10---------12h17-------------------------------|-------------------
--------------11-10h13------------------------------------|-------------------
                                                           end 1

---------------------|-20p17--------------------------------------------------
---------------------|-------18-----------------------------------------------
-9-------------------|----------17p14h17p14-----------------------------------
---10p5h10p5---5-----|----------------------15p10h15p10----10-----------------
-------------7---7---|----------------------------------12----12--------------
-------------------8-|-------------------------------------------13-15--------
                       end 2

------------------------------------------------------------------------------
------------------------------------------------------------------------------
------------------------------------------------------------------------------
-----------------------------7--8-8-8-8-8-8-8-8-8-8-8-8-8-8-8-8-7-7-7-7-7-7-7-
-5-5-5-5-5-5-5-5-5-5-5-5-5-5-5--6-6-6-6-6-6-6-6-6-6-6-6-6-6-6-6-5-5-5-5-5-5-5-
-3-3-3-3-3-3-3-3-3-3-3-3-3-3--------------------------------------------------
 1:39 - 1:52 Rhythm

------------------------------------------------------------------------------
------------------------------------------------------------------------------
------------------------------------------------------------------------------
-7-7-7-7-7-7-7-7-7-5-5-5-5-5-5-5-5-5-5-5-5-5-5--------------------------------
-5-5-5-5-5-5-5-5-5-3-3-3-3-3-3-3-3-3-3-3-3-3-3-3/-5-5-5-5-5-5-5-5-5-5-5-5-5-5-
-----------------------------------------------1/-3-3-3-3-3-3-3-3-3-3-3-3-3-3-


------------------------------------------------------------------------------
------------------------------------------------------------------------------
------------------------------------------------------------------------------
-7--8-8-8-8-8-8-8-8-8-8-8-8-8-8-8-7-7-7-7-7-7-7-7-7-7-7-7-7-7-7-7-------------
-5--6-6-6-6-6-6-6-6-6-6-6-6-6-6-6-5-5-5-5-5-5-5-5-5-5-5-5-5-5-5-5-3-3-3-3-3-3-
------------------------------------------------------------------1-1-1-1-1-1-


---------------------|----------------------------|---------------------------
---------------------|----------------------------|---------------------------
---------------------|----------------------------|---------------------------
---------------------|----------------------------|---------------------------
-3-3-3-3-3-3-3-3-3-3-|-5--5-5-6\5-5-5--5--5-6-/11-|-5--5-6----5----6----------
-1-1-1-1-1-1-1-1-1-1-|-3--3-3-4\3-3-3--3--3-4-/9--|-3--3-4----3----4----------
                      1:52 - 1:57               x3  1:57 - 1:59

-------------------------------------8-10*8*10*8--8---------------------------
---------------------------t10p5h8-10-----------10--10p8---8------------------
---------------------t9p5h7------------------------------9---9p7---9b12--9--7-
---------------t9p5h7-------------------------------------------10------------
--------t9/12p7---------------------------------------------------------------
-t10p5h8----------------------------------------------------------------------
 1:59 - 2:26 Tommy's Solo

------------------------------------------------------------------------------
------------------------------------------------------------------------------
----7b9-------------------r----5*7*5*7*5*7*5*7*5\4-5-7-5-4--------------------
-10--------------------------------------------------------7-5-4-5-7-5-4-2-4--
----------------------------------/---/---/---/-------------------------------
------------------------------------------------------------------------------
        slow bend with p.h.'s     w/ bar

------------------------------------------------------------------------------
------------------------------------------------------------------------------
-----------------------------------------------------------4-5-7-5-4-7--7-b-9-
-5-4-2-------------------------------------------4-5-7-5-4--------------------
-------5-3-2-3-5-3-2-------------------2-3-5-3-2------------------------------
---------------------5-3-2-3-5-3-2-3-5----------------------------------------


--------------5---------------------------------------------------------------
------------5---8p5------------------------------------12-10-9-10p9p7--7------
-r7--5--7b9---------7p5-7b9-r7-8b10-r8-9-b-11-11-9-b11---------------10-10-9--
------------------------------------------------------------------------------
------------------------------------------------------------------------------
------------------------------------------------------------------------------
                                                       ph

------------------------------------------------------------------------------
-----------------------------------12-\/-12-----------------------------------
-7\6-9p7p6b7r6b7r6-9b11-9---b---11----------11-\9--6h7h9-6h7h9-t11p7h9--------
------------------------------------------------------------------------------
------------------------------------------------------------------------------
------------------------------------------------------------------------------


---------t12p7h10t12p7h10--------9b10-------9-9b10-9-9b10-9-9b10-8-10b12-r-8--
-t12p7h10----------------t12p7h10---------------------------------------------
------------------------------------------------------------------------------
------------------------------------------------------------------------------
------------------------------------------------------------------------------
------------------------------------------------------------------------------


-10h11h14---p11p10h11h14p11p10------------------------------------------------
-------------------------------13-11-10-11h13p11p10---------------------------
---------------------------------------------------12-\11-p8p7h8h11p8-7h8p7h8-
------------------------------------------------------------------------------
------------------------------------------------------------------------------
------------------------------------------------------------------------------


----------15--v--|---------------------------|--------------------------------
----------/------|---------------------------|--------------------------------
-p7h8p7--/-------|---------------------------|--------------------------------
--------/--------|-------------------------8-|--------------------------------
-----------------|-7--7-7-8\7-7-7--7--7-8--6-|-7-7-7-7----7----8--------------
-----------------|-5--5-5-6\5-5-5--5--5-6----|-5-5-5-5----5----6--------------
       w/ bar     1:59 - 2:11 Rhythm           2:11 - 2:12

---------------------------|---------------------------|----------------------
---------------------------|---------------------------|----------------------
-------------------------5-|-------------------------8-|----------------------
-4--4-4-5\4-4-4--4--4-5--3-|-7--7-7-8\7-7-7--7--7-8--6-|----------------------
-2--2-2-3\2-2-2--2--2-3----|-5--5-5-6\5-5-5--5--5-6----|----------------------
---------------------------|---------------------------|----------------------
 2:13 - 2:19 Rhythm      x4  2:19 - 2:26 Rhythm      x4

---------------------------------|--------------------------------------------
---------------------------------|--------------------------------------------
-7--p0-----------8--p0-----------|-7-----------------8------------------------
-------8p0h7p0-0-------9p0h8p0-0-|-7-----------------8------------------------
---------------------------------|-5-----------------6------------------------
---------------------------------|--------------------------------------------
 2:40 - 2:47                  x4  2:40 - 2:47 Rhythm    x4

---------------------|--------------------------------------------------------
---------------------|--------------------------------------------------------
-7---------8---------|-7-5-3---5-3---3----------------------------------------
-7---5-5---8---7-6---|-------7-----7-----7-5-3-7-5-3---5-3-----3--------------
-5---6-5---6---7-6---|-------------------------------6-----6-5---6-5-6---5-3--
-----4-3-------5-4---|--------------------------------------------------------
 2:47 - 2:56       x4  3:00 - 3:04 Guitar + Bass Interlude

-----------|------------------------------------------------------------------
-----------|------------------------------------------------------------------
-----------|------------------------------------------------------------------
-----------|-----2-------3------3----------2-------3--------------------------
---5-3-----|-2---2-------1------1--3---2---2-------1---3---3------------------
-6-----6-5-|-0---0---2-3----2-3----1---0---0---2-3-----1---1------------------
             4:01 - end [with a swing feel]

  Visit MetalTabs.com for more metal tablature

bottom separator

Contact Us | Privacy Policy | Disclaimer | Legal Notice
Copyright © 2001-2014 MetalTabs.com. All Rights Reserved.