top separator

Home

Forum

What's New

Submit a Tab

FAQ

Links

Contact Us

Link to Us

MuSpy.com

MetalTabs.com logo

Bands

0-9

A

B

C

D

E

F

G

H

I

J

K

L

M

N

O

P

Q

R

S

T

U

V

W

X

Y

Z

Search

What

Where
 

Hearse (SE) - "Cambodia" Guitar Tab

Plain Text Version
More Hearse (SE) Tabs

Hits: 1933
Updated: 2006-08-31 07:56:21

 

By:

Daniil

sendpm.gif

email.gif

Important note
This tab is available online because we obtained explicit permission from Hearse (SE) or their label.


#----------------------------------PLEASE NOTE---------------------------------#
#This file is the author's own work and represents their interpretation of the #
#song. You may only use this file for private study, scholarship, or research. #
#Unless specified otherwise, this is NOT an official tab from the band members.#
#------------------------------------------------------------------------------#

  Visit MetalTabs.com for more metal tablature
  
HEARSE-Cambodia
Armageddon Mon Amour-2004
Copyright Candlelight Records
Transcribed by Daniil Laletin
e-mail: dlaletin@mail.ru
version 1.0 February 2006

All corrections are welcome.

 " - tremolo
 / - slide down
 \ - slide up
 . - palm mute
 ~ - long sound
 x - rest
 p - pull off
 h - hammer on
 tr - trill
 () - ghost note, sustained note
 * - artificial harmonics
 b - bend

 Tuning from low to high: D G C F A D

================================

 Intro  x4        x3
|---------|---------|
|---------|---------|
|---------|---------|
|---------|---------|gtr 1
|-7-7-7-7-|-7-7-7-7-|
|-.-.-.-.-|-.-.-.-.-|
|
|---------|---------|
|---------|---------|
|---------|---------|
|---------|-9-9-9-9-|gtr 2
|---------|-.-.-.-.-|
|---------|---------|

 Riff 1a
|------------------------------------------|
|--121212-13--1012------------------121212-|
|-------------------121212-14--1112--------|
|------------------------------------------|gtr 1
|------------------------------------------|
|------------------------------------------|
|
|------------------------------------------|
|------------------------------------------|
|------------------------------------------|
|------------------------------------------|gtr 2
|-7-7-7-7-7-7-7-7-7-7-7-7-7-7-7-7-7-7-7-7--|
|-.-.-.-.-.-.-.-.-.-.-.-.-.-.-.-.-.-.-.-.--|
|
|------------------------------------------|
|------------------------------------------|
|------------------------------------------|
|-9-9-9-9----------------------------------|gtr 3
|-.-.-.-.----------------------------------|
|------------------------------------------|

|-----------------------------------------------------|
|-13--1012---------13--15--13--12-1312----------------|
|-----------121212---------------------12-------------|
|-----------------------------------------------------|gtr 1
|-----------------------------------------------------|
|-----------------------------------------------------|
|
|-----------------------------------------------------|
|-----------------------------------------------------|
|-----------------------------------------------------|
|-----------------------------------------------------|gtr 2
|--------------------------------------3~---2-3p2-0---|
|-3-3-3-3-3-3-3-3-3-3-3-3-3-3-3-3---------------------|
  . . . . . . . . . . . . . . . .


 Riff 1b
|-----------------------------------------------|
|--121212-13--1012-----------------------121212-|
|--121212-14--1112----121212-14---1112---121212-|
|---------------------141414-16---1214----------|gtr 1
|-----------------------------------------------|
|-----------------------------------------------|
|
|-----------------------------------------------|
|-----------------------------------------------|
|-----------------------------------------------|
|-----------------------------------------------|gtr 2
|---------------------2-------------------2-----|
|--------000000000000-0------000000000000-0-----|

|-----------------------------------------------------|
|-13--1012---------13--15--13--12-1312----------------|
|-14--1112--121212-14--16--14--12-1412-12-------------|
|-----------141414---------------------14-------------|gtr 1
|-----------------------------------------------------|
|-----------------------------------------------------|
|
|-----------------------------------------------------|
|-----------------------------------------------------|
|-----------------------------------------------------|
|-----------------------------------------------------|gtr 2
|--------------5-----------------5-----3~---2-3p2-0---|
|-333333333333-3----333333333333-3--------------------|



 FILL 1
|-----------------------------|
|-----------------------------|
|-----------------------------|
|-----------------------------|both
|------2------2------2------2-|
|-0000-0-0000-0-0000-0-0000-0-|



 Riff 2a
|--------------------------------|
|--------------------------------|
|-----------------------------"--|
|-----------------------------2--|gtr 1
|-----2-----2-----2-----2--------|
|-0-0-0-000-0-000-0-000-0-000----|
|
|--------------------------------|
|--------------------------------|
|--------------------------------|
|--------------------------------|gtr 2
|-----2-----2-----2-----2-----2--|
|-0-0-0-000-0-000-0-000-0-000-0--|

|--------------------------------|
|--------------------------------|
|-----------------------------"--|
|-----------------------------5--|gtr 1
|-----5-----5-----5-----5--------|
|-3-3-3-333-3-333-3-333-3-333----|
|
|--------------------------------|
|--------------------------------|
|--------------------------------|
|--------------------------------|gtr 2
|-----5-----5-----5-----5-----5--|
|-3-3-3-333-3-333-3-333-3-333-3--|

|--------------------------------|
|-----------------------------"--|
|-----------------------------7--|
|-----7-----7-----7-----7--------|gtr 1
|-5-5-5-555-5-555-5-555-5-555----|
|--------------------------------|
|
|--------------------------------|
|--------------------------------|
|--------------------------------|
|-----7-----7-----7-----7-----7--|gtr 2
|-5-5-5-555-5-555-5-555-5-555-5--|
|--------------------------------|

|-----------------------------------|
|-----------------------------------|
|-----------------------------------|
|------------------9999999999999999-|gtr 1
|-----7-----7-7777-7777777777777777-|
|-5-5-5-555-5-5555------------------|
|
|-----------------------------------|
|-----------------------------------|
|-----------------------------------|
|------------------9999999999999999-|gtr 2
|-----7-----7-7777-7777777777777777-|
|-5-5-5-555-5-5555------------------|



 Riff 2b
|--------------------------------|
|--------------------------------|
|--------------------------------|
|-----------------------------"--|gtr 1
|-----2-----2-----2-----2-----2--|
|-0-0-0-000-0-000-0-000-0-000----|
|
|--------------------------------|
|--------------------------------|
|--------------------------------|
|--------------------------------|gtr 2
|-----2-----2-----2-----2-----2--|
|-0-0-0-000-0-000-0-000-0-000-0--|

|--------------------------------|
|--------------------------------|
|--------------------------------|
|-----------------------------"--|gtr 1
|-----5-----5-----5-----5-----5--|
|-3-3-3-333-3-333-3-333-3-333----|
|
|--------------------------------|
|--------------------------------|
|--------------------------------|
|--------------------------------|gtr 2
|-----5-----5-----5-----5-----5--|
|-3-3-3-333-3-333-3-333-3-333-3--|

|--------------------------------|
|--------------------------------|
|-----------------------------"--|
|-----7-----7-----7-----7-----7--|gtr 1
|-5-5-5-555-5-555-5-555-5-555----|
|--------------------------------|
|
|--------------------------------|
|--------------------------------|
|--------------------------------|
|-----7-----7-----7-----7-----7--|gtr 2
|-5-5-5-555-5-555-5-555-5-555-5--|
|--------------------------------|

|-----------------------------------|
|-----------------------------------|
|-----------------------------------|
|------------------9999999999999999-|gtr 1
|-----7-----7-7777-7777777777777777-|
|-5-5-5-555-5-5555------------------|
|
|-----------------------------------|
|-----------------------------------|
|-----------------------------------|
|------------------9999999999999999-|gtr 2
|-----7-----7-7777-7777777777777777-|
|-5-5-5-555-5-5555------------------|



 Riff 3
|-7-------------------------------|
|---------8--------------7-8---8--|
|-----------9----------9-----9----|
|---------------------------------|gtr 1
|---------------------------------|
|---------------------------------|
|
|---------------------------------|
|---------------------------------|
|---------------------------------|
|---------------------------------|gtr 2
|--------------2---------------2--|
|-000000000000-0--000000000000-0--|

|-12-10----------------8-7---------7-----|
|----------101210-8--------10-8-10---8-7-|
|----------------------------------------|
|----------------------------------------|gtr 1
|----------------------------------------|
|----------------------------------------|
|
|----------------------------------------|
|----------------------------------------|
|----------------------------------------|
|----------------------------------------|gtr 2
|--------------5-----------7----------9--|
|-333333333333-3------5555-5-----7777-7--|

 on the second time, at the end, play this:
|--------|
|--------|
|-9------|
|--------|gtr 1
|--------|
|--------|
|
|--------|
|--------|
|--------|
|--------|gtr 2
|-2------|
|-0------|


 Riff 4
|--------------------------------|
|--------------------------------|
|--------------------------------|
|--------------------------------|both
|-----2-----2-----2-----2-----2--|
|-0-0-0-000-0-000-0-000-0-000-0--|


|--------------------------------|
|--------------------------------|
|--------------------------------|
|--------------------------------|both
|-----5-----5-----5-----5-----5--|
|-3-3-3-333-3-333-3-333-3-333-3--|

|-----------------|
|-----------------|
|-----------------|
|-----------------|both
|-3----2-3p2-0----|
|-----------------|


 Solo riff
|------------------------|
|------------------------|
|------------------------|
|-9----7-----------------|both
|-7----5----5----3333-x8-|
|-----------3------------|


 Ending chord
|------|
|------|
|------|
|------|both
|-2----|
|-0----|

  Visit MetalTabs.com for more metal tablature

bottom separator

Contact Us | Privacy Policy | Disclaimer | Legal Notice
Copyright © 2001-2014 MetalTabs.com. All Rights Reserved.