top separator

Home

Forum

What's New

Submit a Tab

FAQ

Links

Contact Us

Link to Us

MetalTabs.com logo

Bands

0-9

A

B

C

D

E

F

G

H

I

J

K

L

M

N

O

P

Q

R

S

T

U

V

W

X

Y

Z

Search

What

Where
 

Funebre (FI) - "Cranial Torment" Guitar Tab

Plain Text Version
More Funebre (FI) Tabs

Hits: 2190
Updated: 2006-08-31 07:55:14

 

By:

Cunty Shunt

sendpm.gif

email.gif

Important note
We did our best to reach Funebre (FI) and ask for their permission to publish this tab. Unfortunately they did not respond to our requests or we could not find a way to contact them. This tab is available online until Funebre (FI) tells us to take it down.


#----------------------------------PLEASE NOTE---------------------------------#
#This file is the author's own work and represents their interpretation of the #
#song. You may only use this file for private study, scholarship, or research. #
#Unless specified otherwise, this is NOT an official tab from the band members.#
#------------------------------------------------------------------------------#

  Visit MetalTabs.com for more metal tablature
  
Band:  Funebre
Album: Cranial Torment
Song:  Cranial Torment

Copyright (c)  Sel-Released Demo 1989
Version 1.0 - 7-25-06

Transcribed By: Jim Haras
Email:          jimharas@yahoo.com


.  - palm mute           /  - slide up to
\  - slide down to       ~  - vibrato
h  - hammer on           b  - Bend
p  - pull off            Suffixes for bend
t  - tap                 f  - full bend    h - half bend
ph - pinched harmonic    q  - quarter bend t - tap bend
*  - see comment         ^  - Hold bend    r release bend
x  - Stuccatto           ~  - vibrato bend
,  - slight palm mute    () - ghost note, sustained note
"  - tremolo note        <> - Trill

Tuning C F A# D# G C

Riff 1                               1      2
|-----------------------------------|------|------|
|-----------------------------------|------|------|
|-----------------------------------|------|------|
|-----------------------------------|------|------|
|--2-22-458--2-22-458--2-22-458--54-|--54--|--98--|
|--0-00-236--0-00-236--0-00-236--32-|--32--|--76--|

Riff 2
|---------------------------------------------|
|---------------------------------------------|
|---------------------------------------------| x2
|---------------------------------------------|
|--2-22-32--2-22-4510-2-22-32--2-22-10-54-----|
|--0-00-10--0-00-238--0-00-10--0-00-8--32-----|

Riff 1
Riff 2 x2

Riff 3
|------------------------------------|
|------------------------------------|
|------------------------------------| x4
|------------------------------------|
|--10--10--654-4-3-3-4-10br10--------|
|--8---8---432-2-1-1-2-8-br8---------|

Riff 1

transition
|-------|
|-------|
|-------|
|-------|
|--2----|
|--0----|


Riff 4
|--------------------------|
|--------------------------|
|--------------------------| x6
|-------5544------7766-----|
|--2222-3322-2222-5544-----|
|--0000------0000----------|

Riff 5
|-------------------------------------------------|
|-------------------------------------------------|
|-------------------------------------------------| x4
|--5555------6666------7777------8888-------------|
|--3333-2222-4444-7777-5555-7777-6666-9999--------|
|-------0000------5555------5555------7777--------|

Riff 6
|--------------------|
|--------------------| x4
|--------------------|
|--5--6-----4-3------|
|--3--4--5--2-1------|
|--------3-----------|

Riff 5 x4
Riff 6 x4

transition
|-------|
|-------|
|-------|
|-------|
|--2----|
|--0----|

Riff 7
|------------------------------|
|------------------------------|
|------------------------------| x11
|--4--------------------3------|
|----5-2--3------3--------4-1--|
|-----------5-2----5-2---------|

Riff 8a
|---------------------|
|---------------------|
|---------------------| x4
|-----4-3-----7-6-----|
|--2--2-1-4-5-5-4-----|
|--0------2-3---------|

Riff 8b
|---------------------|
|---------------------|
|---------------------| x4
|-----4-3-----7-6-----|
|--22-2-1-4-5-5-4-----|
|--00-----2-3---------|

Riff 8c
|---------------------|
|---------------------|
|---------------------| x4
|-------4433-----7766-|
|--2222-2211-445-5544-|
|--0000------223------|

Under Solo
|----------------------------|
|----------------------------|
|----------------------------| x4
|--3--6----------------------|
|--1--4--4--3--3--6--5--2----|
|--------2--1--1--4--3--0----|

End Solo   transition
|--------|--------------|
|--------|--------------|
|--------|--------------|
|--3--6--|--5-----------|
|--1--4--|--3-----3-----|
|--------|--------1-----|

Riff 1
Riff 2 x2
Riff 1
Riff 2 x2
Riff 3 x4 (bend last note a few times on #4)

END

  Visit MetalTabs.com for more metal tablature

bottom separator

Contact Us | Privacy Policy | Disclaimer | Legal Notice
Copyright © 2001-2014 MetalTabs.com. All Rights Reserved.