top separator

Home

Forum

What's New

Submit a Tab

FAQ

Links

Contact Us

Link to Us

MetalTabs.com logo

Bands

0-9

A

B

C

D

E

F

G

H

I

J

K

L

M

N

O

P

Q

R

S

T

U

V

W

X

Y

Z

Search

What

Where
 

Antimatter - "Relapse" Guitar Tab

Plain Text Version
More Antimatter Tabs

Hits: 2722
Rated: 5.00 out of 5 (3 votes)
Updated: 2006-08-31 07:46:14

 

By:

biaiothanatos

sendpm.gif

email.gif

Important note
This tab is available online because we obtained explicit permission from Antimatter or their label.


#----------------------------------PLEASE NOTE---------------------------------#
#This file is the author's own work and represents their interpretation of the #
#song. You may only use this file for private study, scholarship, or research. #
#Unless specified otherwise, this is NOT an official tab from the band members.#
#------------------------------------------------------------------------------#

  Visit MetalTabs.com for more metal tablature
  
Band: Antimatter
Album: Planetary Confinement
Song: Relapse

Copyright (c) The End Records 2005
Version 1.0 - July 23 2006

Transcribed By: Chris Day
Email: biaiothanatos@gmail.com
Feel free to email me with corrections, comments or anything else.  Hopefully
this tab is helpful to someone.  The song isn't too difficult.  I also made
a power tab version, so if you want more precise timing / details, look
that version up or email me and I will hook you up.

.  - palm mute           /  - slide up to
  - slide down to       ~  - vibrato
h  - hammer on           b  - Bend
p  - pull off            Suffixes for bend
t  - tap                 f  - full bend    h - half bend
ph - pinched harmonic    q  - quarter bend t - tap bend
*  - see comment         ^  - Hold bend    r release bend
x  - Stuccatto           ~  - vibrato bend
,  - slight palm mute    () - ghost note, sustained note
"  - tremolo note        <> - Trill

Tunning: E A D G B E



  Q=75


Riff A:
|-----------------|-----------------|-----------------|------------------|
|-----1-------1---|-----1-------1---|-----1-------1---|-----1-------1----|
|-------2-------2-|-------2-------2-|-------2-------2-|-------2-------2--|
|---2-------2-----|---2-------2-----|---2-------2-----|---2-------2------|2x
|-0-------0-------|-0-------0-------|-0-------0-------|-0-------0--------|
|-----------------|-----------------|-----------------|------------------|



Riff B (verse):
|------------------|-----------------|-----------------|-------------------|
|------1-------1---|-----1-------0---|-----1-------1---|-----1-------1-----|4x
|--------2-------2-|-------2-------0-|-------2-------2-|-------2-------2---|
|----2-------2-----|---2-------0-----|---2-------2-----|---2-------2-------|
|--0-------0-------|-0-------0-------|-0-------0-------|-0-------0---------|
|------------------|-----------------|-----------------|-------------------|



 Riff C:
                                4x
||------------------------------||-----------------------|
||o-------1-----3--------0-1-0-o||-----0-1-0-------------|
||----2-----------0-------------||-----------------------|
||------2-----0--------0--------||---0-------------------|
||o-0-------2------------------o||-----------------------|
||-------------------3----------||-3---------------------|



 Riff C1:
|------------------|-0-0-0-0-0----|
|-----0-1-0-(0)----|-0-0-0-0-0----|
|------------------|-8-8-8-8-8----|
|---2--------------|-6-6-6-6-6----|
|------------------|-7-7-7-7-7----|
|-0----------------|--------------|


Riff A x2
Riff B x4
Riff C
Riff A x2
Riff B x4
Riff C
Riff C1
Rest 8 bars (variation of riff C played octave higher by keyboard)
Riff C x2
Riff C1

  Visit MetalTabs.com for more metal tablature

bottom separator

Contact Us | Privacy Policy | Disclaimer | Legal Notice
Copyright © 2001-2014 MetalTabs.com. All Rights Reserved.