top separator

Home

Forum

What's New

Submit a Tab

FAQ

Links

Contact Us

Link to Us

MetalTabs.com logo

Bands

0-9

A

B

C

D

E

F

G

H

I

J

K

L

M

N

O

P

Q

R

S

T

U

V

W

X

Y

Z

Search

What

Where
 

Spawn of Possession - "Dead & Grotesque" Guitar Tab

Plain Text Version
More Spawn of Possession Tabs

Hits: 4712
Rated: 3.67 out of 5 (3 votes)
Updated: 2006-08-31 07:45:33

 

By:

Yura

sendpm.gif

email.gif

Important note
This tab is available online because we obtained explicit permission from Spawn of Possession or their label.


#----------------------------------PLEASE NOTE---------------------------------#
#This file is the author's own work and represents their interpretation of the #
#song. You may only use this file for private study, scholarship, or research. #
#Unless specified otherwise, this is NOT an official tab from the band members.#
#------------------------------------------------------------------------------#

  Visit MetalTabs.com for more metal tablature
  
Song : DEAD AND GROTESQUE
Band : SPAWN OF POSSESSION
ALBUM : Nocatmbulant
Copyright Neurotic Records 2006

Version 1.0 (July'06)
Transcribed by : Yura Kowalchuk
       contact : yura_kowalchuk@mail.ru
URL: [www.blood-scrapes.nm.ru]

::TABULATURE LEGEND::
 " - tremolo             h - hammer on
 ~ - vibrato             \ - slide down
 p - pull off            / - slide down
 tr - trill              ^ - pinch harmonics
 = - sustained note      b - bend string
 p.m. - palm muting      t - tapping

Tuning: B-E-A-D-G-B-E

[Intro]
|---------------------------------|------------------------------|-
|---------------------------------|------------------------------|-
|---------------------------------|------------------------------|-
|---------------------------------|------------------------------|-
|--------------------6"-----------|------------------------------|-
|-2--7"--8"--6"--7"------8"--10"--|-2--7"--8"--6"--7"--6-6-3--5--|-
|-0-------------------------------|-0------------------4-4-1--3--|-
| .                               | .                  . . .  .  |
|---------------------------------|------------------------------|-
|---------------------------------|------------------------------|-
|---------------------------------|------------------------------|-
|---------------------------------|------------------------------|-
|---------------------------------|------------------------------|-
|-2-------------------------------|------------------------------|-
|-0-------------------------------|------------------------------|-
  .

-|---------------------------------|-----------------------|
-|---------------------------------|-----------------------|
-|---------------------------------|-----------------------|
-|---------------------------------|-----------------------|
-|--------------------9"-----------|-----------------------|
-|-2--10"-11"-9"-10"-----11"--13"--|-2---2-2---2--6--3--5--|
-|-0-------------------------------|-0---0-0---0--4--1--3--|
 | .                               | .   . .   .  .  .  .  |
-|---------------------------------|-----------------------|
-|---------------------------------|-----------------------|
-|---------------------------------|-----------------------|
-|---------------------------------|-----------------------|
-|--------------------6"-----------|-----------------------|
-|-2--7"--8"--6"--7"------8"--10"--|-2---2-2---2--6--3--5--|
-|-0-------------------------------|-0---0-0---0--4--1--3--|
   .                                 .   . .   .  .  .  .

[Riff 1a]
|---------------------------------|------------------------------|-
|---------------------------------|------------------------------|-
|---------------------------------|------------------------------|-
|---------------------------------|------------------------------|-
|--------------------6"-----------|------------------------------|-
|-2--7"--8"--6"--7"------8"--10"--|-2--7"--8"--6"--7"--6-6-3--5--|-
|-0-------------------------------|-0------------------4-4-1--3--|-
| .                               | .                  . . .  .  |
|---------------------------------|------------------------------|-
|---------------------------------|------------------------------|-
|---------------------------------|------------------------------|-
|---------------------------------|------------------------------|-
|--------------------6"-----------|------------------------------|-
|-2--7"--8"--6"--7"------8"--10"--|-2--10"-11"-9"-10"--6-6-3--5--|-
|-0-------------------------------|-0------------------4-4-1--3--|-
  .                                 .                  . . .  .

-|---------------------------------|-----------------------|
-|---------------------------------|-----------------------|
-|---------------------------------|-----------------------|
-|---------------------------------|-----------------------|
-|--------------------9"-----------|-----------------------|
-|-2--10"-11"-9"-10"-----11"--13"--|-2---2-2---2--6--3--5--|
-|-0-------------------------------|-0---0-0---0--4--1--3--|
 | .                               | .   . .   .  .  .  .  |
-|---------------------------------|-----------------------|
-|---------------------------------|-----------------------|
-|---------------------------------|-----------------------|
-|---------------------------------|-----------------------|
-|--------------------6"-----------|-----------------------|
-|-2--7"--8"--6"--7"------8"--10"--|-2---2-2---2--6--3--5--|
-|-0-------------------------------|-0---0-0---0--4--1--3--|
   .                                 .   . .   .  .  .  .

[Riff 1b]
|---------------------------------|------------------------------|-
|---------------------------------|------------------------------|-
|---------------------------------|------------------------------|-
|--------------------8"-----------|------------------------------|-
|----9"--10"-8"--9"------10"-12"--|----9"-10"--8"--9"------------|-
|-2-------------------------------|-2------------------6-6-3--5--|-
|-0-------------------------------|-0------------------4-4-1--3--|-
| .                               | .                  . . .  .  |
|---------------------------------|------------------------------|-
|---------------------------------|------------------------------|-
|---------------------------------|------------------------------|-
|---------------------------------|------------------------------|-
|--------------------6"-----------|------------------------------|-
|-2--7"--8"--6"--7"------8"--10"--|-2--10"-11"-9"-10"--6-6-3--5--|-
|-0-------------------------------|-0------------------4-4-1--3--|-
  .                                 .                  . . .  .

-|---------------------------------|-----------------------|
-|---------------------------------|-----------------------|
-|---------------------------------|-----------------------|
-|--------------------8"-----------|-----------------------|
-|----9"--10"-8"--9"------10"-12"--|-----------------------|
-|-2-------------------------------|-2---2-2---2--6--3--5--|
-|-0-------------------------------|-0---0-0---0--4--1--3--|
 | .                               | .   . .   .  .  .  .  |
-|---------------------------------|-----------------------|
-|---------------------------------|-----------------------|
-|---------------------------------|-----------------------|
-|---------------------------------|-----------------------|
-|--------------------6"-----------|-----------------------|
-|-2--7"--8"--6"--7"------8"--10"--|-2---2-2---2--6--3--5--|
-|-0-------------------------------|-0---0-0---0--4--1--3--|
   .                                 .   . .   .  .  .  .

[outro A]
|-----------------|
|-----------------|
|-----------------|
|--------7h10-----|
|----6h9------6h9-|
|-2---------------|
|-0---------------|
  .

[Riff 2 (x2)]
|----------------------------------|-------------------------------|
|----------------------------------|-------------------------------|
|----------------------------------|-------------------------------|
|-------------------------6h7p6-4~-|-------------------------------|
|-6-3-6-3-6-3-6-3-6-3-6-3----------|-6-3-6-3-6-3-6-3-6-3-6-3-9--8--|
|----------------------------------|-------------------------9--8--|
|----------------------------------|-------------------------7--6--|
| . . . . . . . . . . . .          | . . . . . . . . . . . .       |
|----------------------------------|-------------------------------|
|----------------------------------|-------------------------------|
|----------------------------------|-------------------------------|
|----------------------------------|-------------------------------|
|-6-3-6-3-6-3-6-3-6-3-6-3-8h9p8-6~-|-6-3-6-3-6-3-6-3-6-3-6-3-9--8--|
|----------------------------------|-------------------------9--8--|
|----------------------------------|-------------------------7--6--|
  . . . . . . . . . . . .            . . . . . . . . . . . .

[Riff 3 (x2)]
|-----------------------------|----------------------------|-
|-----------------------------|----------------------------|-
|-----------------------------|----------------------------|-
|-----------------------------|--------------8--7-5--------|-
|--7p3-6p3-6p3-7p4--7p4--7p4--|--7p3-6p3-6p3---------7-6-4-|-
|-----------------------------|----------------------------|-
|-----------------------------|----------------------------|-
|                             |                            |
|-----------------------------|----------------------------|-
|-----------------------------|----------------------------|-
|-----------------------------|----------------------------|-
|-----------------------------|--------------11-10-8-------|-
|-10p6-9p6-9p6-10p7-10p7-10p7-|-10p6-9p6-9p6--------10-9-7-|-
|-----------------------------|----------------------------|-
|-----------------------------|----------------------------|-


-|-----------------------------|---------------------------------|
-|-----------------------------|---------------------------------|
-|-----------------------------|---------------------------------|
-|-----------------------------|-11--9--8------------8-6-5-------|
-|--7p3-6p3-6p3-7p4--7p4--7p4--|----------11--9--8---------8-6-5-|
-|-----------------------------|---------------------------------|
-|-----------------------------|---------------------------------|
 |                             |                                 |
-|-----------------------------|---------------------------------|
-|-----------------------------|---------------------------------|
-|-----------------------------|---------------------------------|
-|-----------------------------|-14-12-11----------11-9-8--------|
-|-10p6-9p6-9p6-10p7-10p7-10p7-|----------14-12-11--------11-9-8-|
-|-----------------------------|---------------------------------|
-|-----------------------------|---------------------------------|


[Riff 4 (x2)]
|----------------------------------|----------------------------------|
|----------------------------------|----------------------------------|
|----------------------------------|----------------------------------|
|-------------------------7h10-----|-------------------------6h7p6-4~-|
|-6-3-6-3-6-3-7-3-6-3-6h9------6h9-|-7-3-6-3-6-3-7-3-6-3-6-3----------|
|----------------------------------|----------------------------------|
|----------------------------------|----------------------------------|
| . . . . . . . . . .              | . . . . . . . . . . . .          |
|----------------------------------|----------------------------------|
|----------------------------------|----------------------------------|
|----------------------------------|----------------------------------|
|-------------------------7h10-----|----------------------------------|
|-6-3-6-3-6-3-7-3-6-3-6h9------6h9-|-7-3-6-3-6-3-7-3-6-3-6-3-8h9p8-6~-|
|----------------------------------|----------------------------------|
|----------------------------------|----------------------------------|
  . . . . . . . . . .                . . . . . . . . . . . .

[Riff 5]
|---------------------------------|-------------------------------|-
|---------------------------------|-------------------------------|-
|---------------------------------|-------------------------------|-
|--------7h10------------7h10-----|--------6h9------------6h9-----|-
|----5h8------5h8----5h8------5h8-|----4h7-----4h7----4h7-----4h7-|-
|-5---------------5---------------|-4--------------4--------------|-
|---------------------------------|-------------------------------|-
| .               .               | .              .              |
|---------------------------------|-------------------------------|-
|---------------------------------|-------------------------------|-
|--------7h10------------7h10-----|--------6h9------------6h9-----|-
|---------------------------------|-------------------------------|-
|-5--5h8------5h8-5--5h8------5h8-|-4--4h7-----4h7-4--4h7-----4h7-|-
|---------------------------------|-------------------------------|-
|---------------------------------|-------------------------------|-
  .               .                 .              .

-|---------------------------------|----------------------------------|-
-|---------------------------------|----------------------------------|-
-|---------------------------------|-----------------------------6h9--|-
-|--------7h10------------7h10-----|----6h9--5h8-----6h9--5h8---------|-
-|----5h8------5h8----5h8------5h8-|----------------------------------|-
-|-5---------------5---------------|-5------------5-----------5-------|-
-|---------------------------------|----------------------------------|-
 | .               .               | .            .           .       |
-|---------------------------------|----------------------------------|-
-|---------------------------------|----------------------------------|-
-|--------7h10------------7h10-----|----------------------------------|-
-|---------------------------------|-----------------------------8h11-|-
-|-5--5h8------5h8-5--5h8------5h8-|-5--8h11-7h10-5--8h11-7h10-5------|-
-|---------------------------------|----------------------------------|-
-|---------------------------------|----------------------------------|-
   .               .                 .            .            .

-|---------------------------------|-------------------------------|-
-|---------------------------------|-------------------------------|-
-|------------------------------7"-|---------------9"--------------|-
-|-----7".................---7"----|-8"............---8"-7"--------|-
-|------------------------8"-------|------------------------10"-8"-|-
-|-5-5-----------------------------|-------------------------------|-
-|-3-3-----------------------------|-------------------------------|-
 | . .                             |                               |
-|---------------------------------|-------------------------------|-
-|---------------------------------|-------------------------------|-
-|--------7h10------------7h10-----|--------6h9------------6h9-----|-
-|---------------------------------|-------------------------------|-
-|-5--5h8------5h8-5--5h8------5h8-|-4--4h7-----4h7-4--4h7-----4h7-|-
-|---------------------------------|-------------------------------|-
-|---------------------------------|-------------------------------|-
   .               .                 .              .

-|---------------------------------|----------------------------------|
-|----------------------11"--------|----------------------------------|
-|-7"...................----10"-9"-|-6"................---------------|
-|---------------------------------|--------------------8-7~~~~-------|
-|---------------------------------|----------------------------------|
-|---------------------------------|----------------------------------|
-|---------------------------------|----------------------------------|
 |                                 |                                  |
-|---------------------------------|----------------------------------|
-|---------------------------------|----------------------------------|
-|--------7h10------------7h10-----|----------------------------------|
-|---------------------------------|-----------------------------8h11-|
-|-5--5h8------5h8-5--5h8------5h8-|-5--8h11-7h10-5--8h11-7h10-5------|
-|---------------------------------|----------------------------------|
-|---------------------------------|----------------------------------|
   .               .                 .            .            .

[Riff 6a]
|---------------------------------|------------------------------------|-
|---------------------------------|------------------------------------|-
|---------------------------------|------------------------------------|-
|-----------------9---------------|---------------------------10-7-9-7-|-
|-8-5-8-5-7-5-8-5---5-8-5-7-5-8-5-|---------11-8-10-8------------------|-
|---------------------------------|-9-6-9-6-----------8-5-8-5----------|-
|---------------------------------|------------------------------------|-
| . . . . . . . . . . . . . . . . | . . . . .  . .  . . . . . .  . . . |
|---------------------------------|------------------------------------|-
|---------------------------------|------------------------------------|-
|---------------------------------|------------------------------------|-
|-----------------9---------------|---------------------------10-7-9-7-|-
|-8-5-8-5-7-5-8-5---5-8-5-7-5-8-5-|---------11-8-10-8------------------|-
|---------------------------------|-9-6-9-6-----------8-5-8-5----------|-
|---------------------------------|------------------------------------|-
  . . . . . . . . . . . . . . . .   . . . . .  . .  . . . . .  . . . .

-|---------------------------------|
-|---------------------------------|
-|---------------------------------|
-|-----------------9---------------|
-|-8-5-8-5-7-5-8-5---5-8-5-7-5-8-5-|
-|---------------------------------|
-|---------------------------------|
 | . . . . . . . . . . . . . . . . |
-|---------------------------------|
-|---------------------------------|
-|---------------------------------|
-|-----------------9---------------|
-|-8-5-8-5-7-5-8-5---5-8-5-7-5-8-5-|
-|---------------------------------|
-|---------------------------------|
   . . . . . . . . . . . . . . . .

[outro B1]
|---------------|------------------|-----------------|
|---------------|------------------|-----------------|
|---------------|------------------|-----------------|
|---------------|------------------|---7h10-6h9-7h10-|
|---5h8-4h7-5h8-|---8h11-7h10-8h11-|-----------------|
|-5-------------|-8----------------|-7---------------|
|-3-------------|-6----------------|-5---------------|
| .             | .                | .               |
|---------------|------------------|-----------------|
|---------------|------------------|-----------------|
|---------------|------------------|-----------------|
|---------------|------------------|-----------------|
|---------------|------------------|-----------------|
|-5-------------|-8----------------|-7---------------|
|-3-------------|-6----------------|-5---------------|
  .               .                  .

[Riff 6b]
|---------------------------------|------------------------------------|-
|---------------------------------|------------------------------------|-
|---------------------------------|------------------------------------|-
|-----------------9---------------|---------------------------10p7-9p7-|-
|-8p5-8p5-7p5-8p5---5-8p5-7p5-8p5-|---------11p8-10p8------------------|-
|---------------------------------|-9p6-9p6-----------8p5-8p5----------|-
|---------------------------------|------------------------------------|-
|                                 |                                    |
|---------------------------------|------------------------------------|-
|---------------------------------|------------------------------------|-
|---------------------------------|------------------------------------|-
|-----------------9---------------|---------------------------10p7-9p7-|-
|-8p5-8p5-7p5-8p5---5-8p5-7p5-8p5-|---------11p8-10p8------------------|-
|---------------------------------|-9p6-9p6-----------8p5-8p5----------|-
|---------------------------------|------------------------------------|-

-|---------------------------------|
-|---------------------------------|
-|---------------------------------|
-|-----------------9---------------|
-|-8p5-8p5-7p5-8p5---5-8p5-7p5-8p5-|
-|---------------------------------|
-|---------------------------------|
 |                                 |
-|---------------------------------|
-|---------------------------------|
-|---------------------------------|
-|-----------------9---------------|
-|-8p5-8p5-7p5-8p5---5-8p5-7p5-8p5-|
-|---------------------------------|
-|---------------------------------|

[OUTRO B1]

[outro C]
|----------------------------|
|----------------------------|
|----------------------------|
|----------------------------|
|----------------------------|
|--------2--2-2--2--6--3--5--|
|-5-5-3--0--0-0--0--4--1--3--|
  . . .  .  . .  .  .  .  .

[RIFF 1a, 1b] [RIFF 5]

[Riff 7 /quick!!/]
|---------------------------------------------------|-
|---------------------------------------------------|-
|---------------------------------------------------|-
|-10-------10---10-------10-------------------------|-
|----9-8-9----9----9-8-9----------------------------|-
|---------------------------------------------------|-
|---------------------------9-7-6-7-6-7-9-7-6-7-6-7-|-
| .  . . . .  . .  . . . .  . . . . . . . . . . . . |
|---------------------------------------------------|-
|---------------------------------------------------|-
|---------------------------------------------------|-
|--7--------7----7--------7-------------------------|-
|----6-5-6----6----6-5-6----------------------------|-
|---------------------------------------------------|-
|---------------------------------------------------|-
   . . . .  . . . . . . . .

-|-----------------------------------|
-|-----------------------------------|
-|-----------------------------------|
-|-10--------------------------------|
-|----9-8--------11-9-8--------------|
-|--------11-9-8--------9-8-5-7-4-6--|
-|----------------------------5-2-4--|
 | .  . . .  . . .  . . . . . . . .  |
-|-----------------------------------|
-|-----------------------------------|
-|-----------------------------------|
-|--7--------------------------------|
-|----6-5---------8-6-5--------------|
-|---------8-6-5--------6-5-3-7-4-6--|
-|----------------------------5-2-4--|
    . . .  . . .  . . . . . . . . .

[Riff 8 (x4)]                       /quick picking_
|-----------------------------|------------------|-
|-----------------------------|------------------|-
|-------------------------^---|------------------|-
|-------------------------3~--|--------8-------8-|-
|----------------^------------|----------7-6-7---|-
|----------------3~-----------|------------------|-
|-2-22-2-5-2-4-2----2-5-2-----|-2-22-2-----------|-
| . .. . . . . .    . . .     | . .. . . . . . . |
|-----------------------------|------------------|-
|-----------------------------|------------------|-
|-----------------------------|------------------|-
|-----------------------------|--------5-------5-|-
|----------------5----^---^---|----------4-3-4---|-
|----------------3----4~--3~--|------------------|-
|-2-22-2-5-2-4-2----2---2-----|-2-22-2-----------|-
  . .. . . . . .    .   .       . .. . . . . . .

__________________________________________________________\
-|-------------------|--------------------------|-----------|
-|-------------------|--------------------------|-----------|
-|-------------------|--------------------------|-----------|
-|-------------------|--------------------------|---4---4---|
-|--------6--------6-|--9-----------9-----------|-3---3---4-|
-|-------------------|----------------7-6-4-6-7-|-----------|
-|-2-5-2----7-6-7----|----10--9-10--------------|-----------|
 | . . .  . . . .  . |  . .   . .   . . . . . . | . . . .   |
-|-------------------|--------------------------|-----------|
-|-------------------|--------------------------|-----------|
-|-------------------|--------------------------|-----------|
-|-------10-------10-|-13----------13-5-------5-|---4---4---|
-|----------9-8-9----|----12-11-12------6-3-6---|-3---3---4-|
-|-------------------|--------------------------|-----------|
-|-2-5-2-------------|--------------------------|-----------|
   . . . .  . . . .    .  .  .  .  .  . . . . .   . . . .

[RIFF 6a]

[outro B2]
|------------------|---------------------|--------------------|
|------------------|---------------------|--------------------|
|------------------|---------------------|--------------------|
|------------------|---------------------|---7h10--6h9--7h10--|
|---5h8--4h7--5h8--|---8h11--7h10--8h11--|--------------------|
|-5----------------|-8-------------------|-7------------------|
|-3----------------|-6-------------------|-5------------------|
| .                | .                   | .                  |
|------------------|---------------------|--------------------|
|------------------|---------------------|--------------------|
|------------------|---------------------|--------------------|
|------------------|---------------------|---10h13-9h12-10h13-|
|---8h11-7h10-8h11-|---11h14-10h13-11h14-|--------------------|
|-5----------------|-8-------------------|-7------------------|
|-3----------------|-6-------------------|-5------------------|
  .                  .                     .

[RIFF 6b] [OUTRO B2]

[Riff 9 (x2)]
|-------------|-------------------------------|---------------------------|
|-------------|-------------------------------|---------------------------|
|-------------|-------------3p0---------------|---6---------6-----------6-|
|-------------|-----------------3p0-4---------|-4----5-4--5---6-------6---|
|-8-6-5-6-5---|-5-------5p0-----------5-------|-----------------7-4-7-----|
|-----------8-|---6-3-6-----------------6-3-6-|---------------------------|
|-------------|-------------------------------|---------------------------|
| . . . . . . |   . . .                 . . . |      . .  .     . . . . .
|-------------|-------------------------------|---------------------------|
|-------------|-------------------------------|---------------------------|
|-------------|-------------------------------|---------------------------|
|-------------|-------------5p0---------------|---8---------8-----------8-|
|-------------|-5-------5p0-----5p0-6-5-------|-5---10-9-10---8-------8---|
|-6-4-3-4-3---|---6-3-6-----------------6-3-6-|-----------------9-8-9-----|
|-----------6-|-------------------------------|---------------------------|
  . . . . . .     . . .                 . . .       .  . .      . . .

-|-----------------------------|-----------------------------------|-
-|--------------4--------4-----|-----------4-------4---3-------3---|-
-|-5-4-------4-----------------|-------6-5-------------------------|-
-|-----5-2-5------6-5-6----6---|-----6-------6-3-6---6---5-2-5---5-|-
-|---------------------------7-|-4-7-------------------------------|-
-|-----------------------------|-----------------------------------|-
-|-----------------------------|-----------------------------------|-
 |     . . .      . . .      . | . .         . . . . . . . . . . . |
-|-----------------------------|-----------------------------------|-
-|-----------------------------|-----------------------------------|-
-|-----------------------------|-----------5-------5---4-------4---|-
-|-------------10-------10-----|-------------6-3-6---6---5-2-5---5-|-
-|-8-7-------7----8-7-8----8---|-----8-9-8-------------------------|-
-|-----8-5-8-----------------9-|-6-9-------------------------------|-
-|-----------------------------|-----------------------------------|-
       . . .      . . .      .   . . . . .   . . . . . . . . . . .

-|---------------------------------|-------------------------------------|-
-|---------------------------------|-------------------------------------|-
-|-------------3p0-----------------|-------------------------------------|-
-|-----------------3p0-4-------8p5-|-8p5-----11p8-----10p7-----10p7-10p7-|-
-|-5-------5p0-----------5-4-5-----|-----7p4------9p0------8p0-----------|-
-|---6-3-6-------------------------|-------------------------------------|-
-|---------------------------------|-------------------------------------|-
 |   . . .               . . .     |                                     |
-|---------------------------------|-------------------------------------|-
-|---------------------------------|-------------------------------------|-
-|---------------------------------|-------------------------------------|-
-|-------------5p0-------------8p5-|-8p5-----11p8-----10p7-----10p7-10p7-|-
-|-5-------5p0-----5p0-6-----------|-----7p4------9p0------8p0-----------|-
-|---6-3-6---------------7-6-7-----|-------------------------------------|-
-|---------------------------------|-------------------------------------|-
     . . .               . . .

-|---------------------------------|-
-|---------------------------------|-
-|---------4h7---------------------|-
-|-----6h9-----6h9-----8p5-8p5-----|-
-|-5-5-------------4-4---------4-4-|-
-|---------------------------------|-
-|---------------------------------|-
 | . .             . .         . . |
-|---------------------------------|-
-|---------------------------------|-
-|---------4h7---------6p3-6p3-----|-
-|-----6h9-----6h9-----------------|-
-|-5-5-------------4-4---------4-4-|-
-|---------------------------------|-
-|---------------------------------|-
   . .             . .         . .

-|--------------------------------------------------|
-|---------------------------------8-11-------------|
-|-6h9-----5h8-----------------6h9------------------|
-|-----------------8p5-8p5------------------8p5-8p5-|
-|-----4-4-----4-4---------4-4----------4-4---------|
-|--------------------------------------------------|
-|--------------------------------------------------|
 |     . .     . .         . .          . .         |
-|--------------------------------------------------|
-|---------------------------------5h8--------------|
-|-6h9-----5h8-----6p3-6p3-----6h9----------6p3-6p3-|
-|--------------------------------------------------|
-|-----4-4-----4-4---------4-4----------4-4---------|
-|--------------------------------------------------|
-|--------------------------------------------------|
       . .     . .         . .          . .

[outro D]
|--------------------------------------------|
|--------------------------------------------|
|--------------------------------------------|
|--------------------------------------------|
|-8-6-5-6-5----------------------------------|
|-----------8---6-5----------3-2-------2-----|
|-------------5------8-6-5-2-----5-3-2-0-----|
| . . . . . . . . .  . . . . . . . . . .     |
|--------------------------------------------|
|--------------------------------------------|
|--------------------------------------------|
|--------------------------------------------|
|---------------8-7----------5-4-------------|
|-6-4-3-4-3---7-----10-8-7-4-----7-5-4-2-----|
|-----------6--------------------------0-----|
  . . . . . . . . . .  . . . . . . . . .

[Riff 11 (x3) /under solo/]
|-----------------------------------|-----------------------------------|-
|-----------------------------------|-----------------------------------|-
|-----------------------------------|-----------------------------------|-
|-----------------------------------|-----------------------------------|-
|--------5-----------------4--8-8-7-|--------5--------------------------|-
|------5----66-5--------44----------|------5----66-5---5=======---3====-|-
|-3-33-----------6-2-22-------------|-3-33-----------6-6=======-0-4====-|-
  . ..      .. .   . ..               . ..      .. .            .

  ....[outro D]
 -----------------------------------|---------------------------------------|
 -----------------------------------|---------------------------------------|
 -----------------------------------|---------------------------------------|
 -----------------------------------|------------------------------7h10-----|
 --------5-----------------4--8-8-7-|--------5-----------------6h9------6h9-|
 ------5----66-5--------44----------|------5----66-5---5====-2--------------|
 -3-33-----------6-2-22-------------|-3-33-----------6-6====-0--------------|
  . ..      .. .   . ..               . ..      .. .         .

[RIFF 2 (x2)] [RIFF 3 (x2)] [RIFF 4 (x2)] [RIFF 1a, 1b]

END OF SONG

  Visit MetalTabs.com for more metal tablature

bottom separator

Contact Us | Privacy Policy | Disclaimer | Legal Notice
Copyright © 2001-2014 MetalTabs.com. All Rights Reserved.