top separator

Home

Forum

What's New

Submit a Tab

FAQ

Links

Contact Us

Link to Us

MetalTabs.com logo

Bands

0-9

A

B

C

D

E

F

G

H

I

J

K

L

M

N

O

P

Q

R

S

T

U

V

W

X

Y

Z

Search

What

Where
 

Lowbrow - "Free Ride" Bass Tab

Plain Text Version
More Lowbrow Tabs

Hits: 1974
Updated: 2006-08-31 07:42:41

 

By:

sendpm.gif

email.gif

Important note
This tab is available online because we obtained explicit permission from Lowbrow or their label.


#----------------------------------PLEASE NOTE---------------------------------#
#This file is the author's own work and represents their interpretation of the #
#song. You may only use this file for private study, scholarship, or research. #
#Unless specified otherwise, this is NOT an official tab from the band members.#
#------------------------------------------------------------------------------#

  Visit MetalTabs.com for more metal tablature
  
Band:  LOWBROW
Album: SEX. VIOLENCE. DEATH.
Song:  FREE RIDE

Copyright (c)  MASSACRE RECORDS 2001
Version 1.0 - 18.07.06

Transcribed By: webster
Email:          Alex-Webster@web.de


Tuning: E A D G

        |5x
|-------|-------------------------------------|
|-------|-------------------------------------|
|-------|----5--------5--------5--------------|
|--4-3--|--53-00000-53-00000-53-00000-53-4-3--|

|----------------------------------------|
|----------------------------------------|
|----------------------------------------|
|--4-3-65-4-3-4-3-65-4-3-4-3-65-4-3-4-3--|

3x
|-------------------------------------|
|-------------------------------------|
|----5--------5--------5--------------|
|--53-00000-53-00000-53-00000-53-4-3--|

|-------------------------------------------|
|-------------------------------------------|
|-------------------------------------------|
|--4-3-65-4-3-4-3-65-4-3-4-3-65-4-3-4-3-65--|

      |4x
|-----|-------------------------------------|
|-----|-------------------------------------|
|-----|-------------------------------------|
|--1--|--0-0-0-000-3-0-45-0-0-0-000-3-0-21--|

2x
|---------------------------|
|---------------------------|
|---------------------6/7---|
|--30-30-36-4-30-30-36---4--|

      |4x
|-----|-------------------------------------|
|-----|-------------------------------------|
|-----|-------------------------------------|
|--1--|--0-0-0-000-3-0-45-0-0-0-000-3-0-21--|

2x
|---------------------------|
|---------------------------|
|----------6/7--------------|
|--30-30-36---4-30-30-36-4--|

|--------------------|
|--------------------|
|--------------------|
|--0--0--0--0--0--0--|

        |3x
|-------|-------------------------------------|
|-------|-------------------------------------|
|-------|----5--------5--------5--------------|
|--4-3--|--53-00000-53-00000-53-00000-53-4-3--|

|-------------------------------------------|
|-------------------------------------------|
|-------------------------------------------|
|--4-3-65-4-3-4-3-65-4-3-4-3-65-4-3-4-3-65--|

  Visit MetalTabs.com for more metal tablature

bottom separator

Contact Us | Privacy Policy | Disclaimer | Legal Notice
Copyright © 2001-2014 MetalTabs.com. All Rights Reserved.