top separator

Home

Forum

What's New

Submit a Tab

FAQ

Links

Contact Us

Link to Us

MuSpy.com

MetalTabs.com logo

Bands

0-9

A

B

C

D

E

F

G

H

I

J

K

L

M

N

O

P

Q

R

S

T

U

V

W

X

Y

Z

Search

What

Where
 

Antimatter - "Line Of Fire" Guitar Tab

Plain Text Version
More Antimatter Tabs

Hits: 3521
Rated: 5.00 out of 5 (3 votes)
Updated: 2006-08-31 07:42:20

 

By:

biaiothanatos

sendpm.gif

email.gif

Important note
This tab is available online because we obtained explicit permission from Antimatter or their label.


#----------------------------------PLEASE NOTE---------------------------------#
#This file is the author's own work and represents their interpretation of the #
#song. You may only use this file for private study, scholarship, or research. #
#Unless specified otherwise, this is NOT an official tab from the band members.#
#------------------------------------------------------------------------------#

  Visit MetalTabs.com for more metal tablature
  
Band: Antimatter
Album: Planetary Confinement
Song: Line Of Fire

Copyright (c) The End Records 2005
Version 1.0 - July 17 2006

Transcribed By: Chris Day
Email: biaiothanatos@gmail.com
Feel free to email me with corrections, comments or anything else.  Hopefully
this tab is helpful to someone.  The song isn't too difficult.  I also made
a power tab version, so if you want more precise timing / details, look
that version up or email me and I will hook you up.

.  - palm mute           /  - slide up to
  - slide down to       ~  - vibrato
h  - hammer on           b  - Bend
p  - pull off            Suffixes for bend
t  - tap                 f  - full bend    h - half bend
ph - pinched harmonic    q  - quarter bend t - tap bend
*  - see comment         ^  - Hold bend    r release bend
x  - Stuccatto           ~  - vibrato bend
,  - slight palm mute    () - ghost note, sustained note
"  - tremolo note        <> - Trill

Tunning: E A D G B E


Q=100
Main Riff:
||-----------------|----------------|----------------|-----------------|
||o-------0-(0)----|-(0)----------0-|-------0-(0)----|-(0)-------------|
||--------0-(0)----|-(0)--------0---|-----2----------|-----------------|
||------2----------|----------2-----|---2------------|------------0-2--|
||o---2------------|--------3-------|-0--------------|----------0------|
||--0--------------|----------------|----------------|--------1--------|


|------------------|--------------------|
|-------0-(0)------|-(0)----------0-----|
|-------0-(0)------|-(0)--------0-------|
|-----2------------|----------2---------|
|---2--------------|--------3-----------|
|-0----------------|--------------------|



|---------------------|--------------------------||
|-------0-(0)---------|---(0)------------0h=1-0-o||
|-----2---------------|--------------2-----------||
|---2-----------------|------------3-------------||
|-0-------------------|-------------------------o||
|---------------------|--------------------------||


Interlude:

|-------------------|----------------|----------------|----------------|
|----------0-(0)----|-(0)----------0-|-------0-(0)----|-(0)------------|
|----------0-(0)----|-(0)--------0---|-----2----------|----------------|
|-------2-----------|----------2-----|---2------------|------------0-2-|
|----2--------------|--------3-------|-0--------------|----------0-----|
|-0-----------------|----------------|----------------|--------1-------|
|
| Gtr II
|-------------------|--7-------------|----------------|----------------|
|-3-/5-(5)----------|--0-----------0-|-------0--------|----------------|
|-------------------|--------7-------|-5--------------|----------------|
|-------------------|----------------|----------7-----|----------------|
|-------------------|----------------|----------------|----------------|
|-------------------|----------------|----------------|----------------|


|-------------------|----------------|----------------|-------------------|
|----------0-(0)----|-(0)----------0-|-------0-(0)----|-(0)--------0h1-0--|
|----------0-(0)----|-(0)--------0---|-----2----------|----------2--------|
|-------2-----------|----------2-----|---2------------|--------3----------|
|----2--------------|--------3-------|-0--------------|-------------------|
|-0-----------------|----------------|----------------|-------------------|
|
|-------------------|--7-------------|----------------|-------------------|
|-3-/5-(5)----------|--0-----------0-|-------0--------|-------------------|
|-------------------|--------7-------|-5--------------|-------------------|
|-------------------|----------------|----------7-----|-------------------|
|-------------------|----------------|----------------|-------------------|
|-------------------|----------------|----------------|-------------------|




Solo:

|------------------------|--------------------|
|--------0-(0)-----------|-(0)--------------0-|
|--------0-(0)-----------|-(0)------------0---|
|-----2------------------|--------------2-----|
|---2--------------------|------------3-------|
|-0----------------------|--------------------|
|
| Gtr II
|------------------------|--------------------|
|------------------------|--------------------|
|------------------------|--------------------|
|------------------------|--7--9-----10-9p7h9-|
|-----7-10-----9b10-9-10-|--------------------|
|---7--------------------|--------------------|


|-----------------|----------------|
|--------0-(0)----|-(0)------------|
|------2----------|----------------|
|----2------------|------------0-2-|
|--0--------------|----------0-----|
|-----------------|--------1-------|
|
|-----------------|----------------|
|-----------------|----------------|
|-----------------|----------------|
|-/9--------------|----------------|
|-----------------|----------------|
|-----------------|----------------|


|----------------|-------------------|-------------------|------------------|
|-------0-(0)----|-(0)-------------0-|---------0--(0)----|-(0)--------0h1-0-|
|-------0-(0)----|-(0)-----------0---|-------2-----------|----------2-------|
|-----2----------|-------------2-----|----2--------------|--------3---------|
|---2------------|-----------3-------|--0----------------|------------------|
|-0--------------|-------------------|-------------------|------------------|
|
|----------------|-------------------|-------------------|------------------|
|----------------|-------------------|-------------------|------------------|
|----------------|-------------7-----|-------------------|------------------|
|----------------|-10p9--------------|-10-9-10-----------|------------------|
|----------------|-------------------|-------------------|------------------|
|----------------|-------------------|-------------------|------------------|


|-------------------------|-----------------------|
|---------0-(0)-----------|--(0)----------------0-|
|---------0-(0)-----------|--(0)--------------0---|
|------2------------------|-----------------2-----|
|---2---------------------|---------------3-------|
|-0-----------------------|-----------------------|
|
|--------10---------------|-----------------------|
|-----12-----------12-----|------13---------------|
|---------------12----/14-|-(14)------------------|
|-------------------------|-----------------------|
|-------------------------|-----------------------|
|-------------------------|-----------------------|


|----------------|----------------|
|-------0-(0)----|-(0)------------|
|-----2----------|----------------|
|---2------------|------------0-2-|
|-0--------------|----------0-----|
|----------------|--------1-------|
|
|----------------|----------------|
|----------------|----------------|
|----------------|----------------|
|----------------|----------------|
|----------------|----------------|
|----------------|----------------|


|-------------------------|------------------------|
|------------0-(0)--------|-----(0)--------------0-|
|------------0-(0)--------|-----(0)------------0---|
|---------2---------------|------------------2-----|
|------2------------------|----------------3-------|
|---0---------------------|------------------------|
|
|-------------------------|------------------------|
|-----12p10---------------|------------------------|
|-/12-------11h12--9----9-|-11-11h12---------------|
|--------------------12---|------------------------|
|-------------------------|------------------------|
|-------------------------|------------------------|


|----------------|-------------------|
|-------0-(0)----|-(0)--------0h1-0--|
|-----2----------|----------2--------|
|---2------------|--------3----------|
|-0--------------|-------------------|
|----------------|-------------------|
|
|----------------|-------------------|
|----------------|-------------------|
|----------------|-------------------|
|----------------|-------------------|
|----------------|-------------------|
|----------------|-------------------|


|------------------------|----------------------------|
|-----------0-(0)--------|--(0)---------------------0-|
|-----------0-(0)--------|--(0)--------------0--------|
|--------2---------------|----------------2-----------|
|-----2------------------|--------------3-------------|
|-0----------------------|----------------------------|
|
|------------------------|----------------------------|
|-------12-10------------|----------------------------|
|---/12-------11h12-9-11-|-(11)----9------------------|
|------------------------|------12---9h10-9h10--12-10-|
|------------------------|----------------------------|
|------------------------|----------------------------|


|----------------|-----------------|
|-------0-(0)----|-(0)-------------|
|-----2----------|-----------------|
|---2------------|------------0-2--|
|-0--------------|----------0------|
|----------------|--------1--------|
|
|----------------|-----------------|
|----------------|-----------------|
|----------------|-----------------|
|-9--------------|-----------------|
|----------------|-----------------|
|----------------|-----------------|


|------------------------------|----------------------|
|----------------0-(0)---------|-------(0)----------0-|
|----------------0-(0)---------|-------(0)--------0---|
|----------2-------------------|----------------2-----|
|--------2---------------------|--------------3-------|
|-----0------------------------|----------------------|
|
|------------------------------|----------------------|
|------------------------------|-10-10h12-------------|
|-11h12p11-9-11h12p11--9-11h12-|----------------------|
|------------------------------|----------------------|
|------------------------------|----------------------|
|------------------------------|----------------------|


|----------------|-------------------|
|-------0-(0)----|-(0)--------0h1-0--|
|-----2----------|----------2--------|
|---2------------|--------3----------|
|-0--------------|-------------------|
|----------------|-------------------|
|
|----------------|-------------------|
|----------------|-------------------|
|----------------|-------------------|
|----------------|-------------------|
|----------------|-------------------|
|----------------|-------------------|


Main Riff x4
Interlude
Main Riff x4
Interlude x2
Main Riff x2
Main Riff x2 w/solo
Main Riff x4 (fades out)

  Visit MetalTabs.com for more metal tablature

bottom separator

Contact Us | Privacy Policy | Disclaimer | Legal Notice
Copyright © 2001-2014 MetalTabs.com. All Rights Reserved.