top separator

Home

Forum

What's New

Submit a Tab

FAQ

Links

Contact Us

Link to Us

MuSpy.com

MetalTabs.com logo

Bands

0-9

A

B

C

D

E

F

G

H

I

J

K

L

M

N

O

P

Q

R

S

T

U

V

W

X

Y

Z

Search

What

Where
 

Exciter - "Rising of the Dead" Guitar Tab

Plain Text Version
More Exciter Tabs

Hits: 2305
Rated: 1.00 out of 5 (1 vote)
Updated: 2006-08-31 07:34:41

 

By:

sendpm.gif

email.gif

Important note
This tab is available online because we obtained explicit permission from Exciter or their label.


#----------------------------------PLEASE NOTE---------------------------------#
#This file is the author's own work and represents their interpretation of the #
#song. You may only use this file for private study, scholarship, or research. #
#Unless specified otherwise, this is NOT an official tab from the band members.#
#------------------------------------------------------------------------------#

  Visit MetalTabs.com for more metal tablature
  
Band: Exciter
Album: Heavy Metal Maniac
Song: Rising of the Dead

Copyright (c)   Shrapnel Records (1983)
Version 1.0 -   2006-15-7

Transcribed By: Benjamin Gheysels
Email:          benjamingheysels@hotmail.com


.  - palm mute           /  - slide up to
\  - slide down to       ~  - vibrato
h  - hammer on           b  - Bend
p  - pull off            Suffixes for bend
t  - tap                 f  - full bend    h - half bend
ph - pinched harmonic    q  - quarter bend t - tap bend
*  - see comment         ^  - Hold bend    r release bend
x  - Stuccatto           ~  - vibrato bend
,  - slight palm mute    () - ghost note, sustained note
"  - tremolo note        <> - Trill

Tuning E A D G B E


Riff 1: play 2 times
|-----------------------------------------------------------|
|-----------------------------------------------------------|
|-----------------------------------------------------------|
|----------------8---6--6-6-6-6-----8-----------------------|
|---8-8-8-8------6---4--4-4-4-4-----6--8--9--11--9--6--8----|
|---6-6-6-6----------------------------6--7---9--7--4--6----|



Riff 2: verse. Play 6 times. The 6th time don't play the final chord
|---------------------------|
|---------------------------|
|---------------------------|
|-----------8--6------------|
|---8-------6--4-------6----|
|---6------------------4----|


Riff 3: chorus. Play 2 times
|-----------------------------------------------------|
|-----------------------------------------------------|
|-----------------------------------------------------|
|---8----4----6----------8----4----6--4--3--8--6--4---|
|---6----2----4----------6----2----4--2--1--6--4--2---|
|-----------------------------------------------------|

Riff 2: play 6 times

Riff 3: play 2 times

then the guitar plays this:

|---11~ ----9~ ---11~ ---|
|------------------------|
|------------------------|
|------------------------|
|------------------------|
|------------------------|


Solo: play this riff during the solo
|-----------------------|
|-----------------------|
|-----------------------|
|---8---------6----8----|
|---6---------4----6----|
|-----------------------|


Riff 4
|--------------------------------------------------------------------------|
|--------------------------------------------------------------------------|
|---8hold---8p6---6---------8hold---8p6---6----------6hold---8p6---6-------|
|---------------9---9p8-----------------9---9p8------------------9---9p8---|
|--------------------------------------------------------------------------|
|--------------------------------------------------------------------------|

|-----------9---------------------------------------|
|-------------12p11-12p11p9h11p9----9---------------|
|---8hold------------------------11---11p10----8----|
|-------------------------------------------11------|
|---------------------------------------------------|
|---------------------------------------------------|


That's it! Enjoy!

  Visit MetalTabs.com for more metal tablature

bottom separator

Contact Us | Privacy Policy | Disclaimer | Legal Notice
Copyright © 2001-2014 MetalTabs.com. All Rights Reserved.