top separator

Home

Forum

What's New

Submit a Tab

FAQ

Links

Contact Us

Link to Us

MetalTabs.com logo

Bands

0-9

A

B

C

D

E

F

G

H

I

J

K

L

M

N

O

P

Q

R

S

T

U

V

W

X

Y

Z

Search

What

Where
 

Hecate Enthroned - "Perjurer" Guitar Tab

Plain Text Version
More Hecate Enthroned Tabs

Hits: 2213
Rated: 5.00 out of 5 (2 votes)
Updated: 2006-08-31 07:29:45

 

By:

Sycophant

sendpm.gif

email.gif

Important note
This tab is available online because we obtained explicit permission from Hecate Enthroned or their label.


#----------------------------------PLEASE NOTE---------------------------------#
#This file is the author's own work and represents their interpretation of the #
#song. You may only use this file for private study, scholarship, or research. #
#Unless specified otherwise, this is NOT an official tab from the band members.#
#------------------------------------------------------------------------------#

  Visit MetalTabs.com for more metal tablature
  
Author/Artist: Hecate Enthroned
Title: Perjurer
Album: Kings Of Chaos [1999 Blackened Records/Plastic Head Distribution]
Transcribed by: Greg D. [Sycophant]
Email: sentience666@hotmail.com

Tune to D.

--------------------------------------|---------------------------------------
--------------------------------------|---------------------------------------
--------------------------------------|---------------------------------------
-2-2-2--2-2-2--2-2-2------------------|-----------------------------2---------
-2-2-2--2-2-2--2-2-2------2-----1---1-|-----2-----1-----2-----3-----2---------
-0-0-0--0-0-0--0-0-0--0-3---0-3---3---|-0-3---0-3---0-3---0-3---0-0-0---------
 0:00 - 0:11 x4                         0:11 - 0:22 x3

-------------------------------|----------------------------------------------
-------------------------------|----------------------------------------------
-------------------------------|------------------------------------8---7--5--
-----------------------------2-|------------------------------------6---7--3--
-----2-----1-----3-----3-----2-|0----3-0-3030----------0----3-0-30306---5--3--
-0-3---0-3---0-3---0-3---0-0-0-|-------------1----4-3-------------------------
 0:11 - 0:22 rep4               0:33 - 0:56

------------------------------------------------------------------------------
------------------------------------------------------------------------------
--------------9----------------9----------------9----------------9------------
-----7---10-----------7---10----------------9----------------9----------------
-7----------------7----------------7---11-----------7---11--------------------
------------------------------------------------------------------------------
 0:56 - 1:08

------------------------------------------------------------------------------
------------------------------------------------------------------------------
-------------------------------------------------10------12--10--9------------
------------------------------------------------------------------------------
------------------------------------------------------------------------------
------------------------------------------------------------------------------
 Guitar II plays this at end of rep 2

------------------------------------------------------------------------------
------------------------------------------------------------------------------
------------------------------------------------------------------------------
-10--------9----10-12--10--9----------10--9-----------------------------------
------------------------------------------------------------------------------
------------------------------------------------------------------------------
 1:08 - 1:19 GuitarII pla ys this while Guitar I plays 0:56 - 1:08 riff x2

---------------------------------------------------------|--------------------
---------------------------------------------------------|--------------------
-2------------------------------------------------2------|--5-----------------
-2----------------5---------------3-------5-------2------|--5--3--------------
-0----------------5---------------3-------5-------0------|--3--3--------------
------------------3---------------1-------3--------------|-----1--------------
 1:19 - 1:42 x2                                            rep2 end

------------------------------------------------------------------------------
------------------------------------------------------------------------------
------2--4--5--7--5--4-5-4--5----4------------7--5--4--5--4-----4-----5--4----
-2-----------------------------------------------------------7-----7----------
------------------------------------------------------------------------------
------------------------------------------------------------------------------
 Guitar II then plays this while Guitar I plays chords

----------------|-------------------------------------------------------------
----------------|-------------------------------------------------------------
----4-----------|-------------------------------------------------------------
-7-----7--------|---------------------------12----10----9--10---------10--9---
----------------|-0---------12--------10-----------------------8--------------
----------------|-------------------------------------------------------------
                 then @ 1:54 Guitar I stars playing this...

-----------------------------|------------------------------------------------
-----------------------------|------------------------------------------------
-----------------------------|------------------------------------------------
------------------------9----|------------------------------------------------
-10---0-------12--10---------|------------------------------------------------
-----------------------------|------------------------------------------------
                              ...while Guitar II plays 1:19 - 1:42 w/some pm

-------------------------------------------|----------------------------------
-------------------------------------------|----------------------------------
-2-------------------2-----------8---7--5--|----------------------------------
-2-------------------2-----------6---5--3--|----------------------------------
-0---30030030--------0---300300306---5--3--|----------------------------------
-------------1---4-3-----------------------|----------------------------------
 2:16 - 2:22, Guitar I plays everything, Guitar 2 plays only the G chord.

From here on out the song repeats itself.
At end, everybody ends on an G chord [Guitar I] or a G note [Guitar II].

  Visit MetalTabs.com for more metal tablature

bottom separator

Contact Us | Privacy Policy | Disclaimer | Legal Notice
Copyright © 2001-2014 MetalTabs.com. All Rights Reserved.