top separator

Home

Forum

What's New

Submit a Tab

FAQ

Links

Contact Us

Link to Us

MuSpy.com

MetalTabs.com logo

Bands

0-9

A

B

C

D

E

F

G

H

I

J

K

L

M

N

O

P

Q

R

S

T

U

V

W

X

Y

Z

Search

What

Where
 

Catasexual Urge Motivation - "Defiling The Grave (Impetigo cover)" Guitar Tab

Plain Text Version
More Catasexual Urge Motivation Tabs

Hits: 1917
Rated: 5.00 out of 5 (1 vote)
Updated: 2006-08-31 07:28:53

 

By:

Cunty Shunt

sendpm.gif

email.gif

Important note
This tab is available online because we obtained explicit permission from Catasexual Urge Motivation or their label.


#----------------------------------PLEASE NOTE---------------------------------#
#This file is the author's own work and represents their interpretation of the #
#song. You may only use this file for private study, scholarship, or research. #
#Unless specified otherwise, this is NOT an official tab from the band members.#
#------------------------------------------------------------------------------#

  Visit MetalTabs.com for more metal tablature
  
Band:  Catasexual Urge Motivation
Album: The Encyclopedia of Serial Murders
Song:  Defiling The Grave" (Impetigo Cover)

Copyright (c)  Deliria 1997
Version 1.0 - 7-10-06

Transcribed By: Jim Haras
Email:          jimharas@yahoo.com


.  - palm mute           /  - slide up to
\  - slide down to       ~  - vibrato
h  - hammer on           b  - Bend
p  - pull off            Suffixes for bend
t  - tap                 f  - full bend    h - half bend
ph - pinched harmonic    q  - quarter bend t - tap bend
*  - see comment         ^  - Hold bend    r release bend
x  - Stuccatto           ~  - vibrato bend
,  - slight palm mute    () - ghost note, sustained note
"  - tremolo note        <> - Trill

Tuning B E A D G B

Riff 1
|-----------------|
|-----------------|
|-----------------| x12
|-----------------|
|--44-5-4\5/4-5---|
|--22-3-2\3/2-3---|

Riff 2
|-------------------|
|-------------------|
|-------------------| x8
|--5-5-6-6-5-5-8-8--|
|--3-3-4-4-3-3-6-6--|
|-------------------|

Riff 3
|-----------------------|
|-----------------------|
|-----------------------| x8
|-----55-4\5/4-3-4------|
|--44-33-2\3/2-1-2------|
|--22-------------------|

Riff 1 (x12)
Riff 2 (x8)

Riff 4
|----------------------------------|
|----------------------------------|
|----------------------------------| x8
|----------------------------------|
|-------5-------6-------5-------6--|
|--2222-3--2222-4--2222-3--2222-4--|
 2s are played really fast

Riff 3 (x8)
Riff 2 (x8)
Riff 3 (x8)

|-----|
|-----|
|-----|
|-----|
|--4--|
|--2--|

END

  Visit MetalTabs.com for more metal tablature

bottom separator

Contact Us | Privacy Policy | Disclaimer | Legal Notice
Copyright © 2001-2014 MetalTabs.com. All Rights Reserved.