top separator

Home

Forum

What's New

Submit a Tab

FAQ

Links

Contact Us

Link to Us

MuSpy.com

MetalTabs.com logo

Bands

0-9

A

B

C

D

E

F

G

H

I

J

K

L

M

N

O

P

Q

R

S

T

U

V

W

X

Y

Z

Search

What

Where
 

Coroner - "About Life" Guitar Tab

Plain Text Version
More Coroner Tabs

Hits: 2958
Rated: 4.75 out of 5 (4 votes)
Updated: 2006-08-31 07:27:02

 

By:

Sycophant

sendpm.gif

email.gif

Important note
We did our best to reach Coroner and ask for their permission to publish this tab. Unfortunately they did not respond to our requests or we could not find a way to contact them. This tab is available online until Coroner tells us to take it down.


#----------------------------------PLEASE NOTE---------------------------------#
#This file is the author's own work and represents their interpretation of the #
#song. You may only use this file for private study, scholarship, or research. #
#Unless specified otherwise, this is NOT an official tab from the band members.#
#------------------------------------------------------------------------------#

  Visit MetalTabs.com for more metal tablature
  
Author/Artist: Coroner
Title: About Life
Album: Mental Vortex [1991 Noise Records]
Transcribed by: Greg D. [Sycophant]
Email: sentience666@hotmail.com

Tune To Eb.

------------------------------------------------------------------------------
------------------------------------------------------------------------------
-----------11-----------------------------------------------------------------
--------11----11--------------11------------------13----------------9---------
-9-h-12----------12--------11----11------------13----13-----------9---9-------
--------------------9-h-12----------12-10-h-14----------14-7-h-10-------10----
 0:00 - 0:05 sweep picking

---------------------------------------------|--------------------------------
---------------------------------------------|--------------------------------
----------9----------------------------------|--------------------------------
--------9---9------------7-------------5-----|--------------------------------
-7-h-11-------11-------7---7---------5---5---|-4-444-4444444-444444444444444--
-----------------5-h-9-------9-3-h-7-------7-|-2-222-2222222-222222222222222--
                                              0:05 - 0:10 & 0:14 - 0:22

---------------------------------------------|--------------------------------
---------------------------------------------|--------------------------------
---------------------------------------------|-----------11-------------------
---------------------------------------------|--------11----11----------------
-5---/10---\444-4444444-444444444444444-5----|-9-h-12----------12--------11---
-3---/8----\222-2222222-222222222222222-3----|--------------------9-h-12------
                                               0:10 - 0:14

------------------------------------------------------------------------------
------------------------------------------------------------------------------
-------------------------------------------------------9----------------------
-11------------------12----------------9-------------9---9------------9-------
----11------------12----12-----------9---9----7-h-11-------11-------9---9-----
-------12-10-h-14----------14-7-h-10-------10-----------------5-h-7-------7---


-----------------------------|------------------------------------------------
-----------------------------|------------------------------------------------
---------7-------------------|------------------------------------------------
-------7---7-----------5-----|--------------------------5---------------------
-5-h-9-------9-------5---5---|-\444-4444444444-5--5--5------------------------
---------------3-h-7-------3-|-\222-2222222222-3--3--3------------------------
                                0:22 - 0:24             ph

------------------------------------------------------------------------------
------------------------------------------------------------------------------
------------------------------------------------------------------------------
------------------------------------------------------------------------------
------------------4------4-----4--------------------7------7-----7------------
-5-222--5-2-2-5-2---222----2-2---2-8-555--8-5-5-8-5---555----5-5---5----------
 0:24 - 0:43

------------------------------------------------------------------------------
------------------------------------------------------------------------------
------------------------------------------------------------------------------
------------------------------------------------------------------------------
------------------4------4-----4--------------------7-------7-6-5-4-----------
-5-222--5-2-2-5-2---222----2-2---2-8-555--8-5-5-8-5---5-5-5-5-4-3-2-----------


------------------------------------------------------------------------------
------------------------------------------------------------------------------
------------------------------------------------------------------------------
-----------------------------------------------------------------7------------
------------------4------4-----4--------------------7------7------------------
-5-222--5-2-2-5-2---222----2-2---2-8-555--8-5-5-8-5---555----5-5---5----------


------------------------------------------------------------------------------
------------------------------------------------------------------------------
------------------------------------------------------------------------------
------------------------------------------------------------------------------
------------------4------4-----4----------------------------7-----6---5-------
-5-222--5-2-2-5-2---222----2-2---2-8-555--8-5-5-8-5-5-8-5-5---5-5---5---5-----


------------------------------------------------------------------------------
------------------------------------------------------------------------------
-------------------4\3-------------------------6\5\4--------------------------
-------------------2\1--3--2-------------------4\3\2---6\5\4------------------
-4-445-55-4-445-55------1--0--5-4-445-55-4-445---------4\3\2---7\6\5----------
-2-223-33-2-223-33------------3-2-223-33-2-223------0-0------0-5\4\3----------
 0:43 - 0:55                                                               x2

------------------------------------------------------------------------------
------------------------------------------------------------------------------
-----------------------2-------------------------------2----------------------
-------------2-------2---2-3-----------------2-------2---2-3------------------
-----------2-------2---------3-------------2-------2---------3----------------
-2-2-2-2-2-----2-2-------------1-2-2-2-2-2-----2-2-------------1--------------
 1:25 - 1:35                                                               x2

------------------------------------------------------------------------------
------------------------------------------------------------------------------
-----------------------2-------------------------------2----------------------
-------------2-------2---5-------------------2-------2-----3------------------
-----------2-------2-----3-----------------2-------2---------3----------------
-2-2-2-2-2-----2-2---------------2-2-2-2-2-----2-2-------------1--------------
 1:35 - 1:45                                                               x2

------------------------------------------|-----------------------------------
------------------------------------------|-----------------------------------
------------------------------------------|-----------------------------------
------------------------------------------|------2/4--------------------------
-----3-3---------3-----0h2-2h3-------3-3--|------------3----------------------
-2---2-2-2-2-2-2-2-2-2---------2-2-2-2-2-2|-2-2-2----------3------------------
 1:45 - 2:04                                                  end #1

----------------------|-------------------------------------------------------
----------------------|-------------------------------------------------------
------------------4-5-|-----------7---------9---------------------------------
-------3----------2/3-|-----6---5---------7-------10---9\---------------------
-2-----1--------------|---4---3-------6-5-------8----7------------------------
-0---00-----000-00----|-2-----------4---------6-------------------------------
 end #2                 2:04 - 2:07

------------------------------------------------------------------------------
------------------------------------------------------------------------------
---------------------9------------------------12------------14----------------
-----6-----7-------7-------10---9-----11---10------------12----------15----14-
---4-----5-----6-5-------8----7-----9----8---------11-10----------13----12----
-2-----3-----4---------6----------7--------------9-------------11-------------
 3:06 - 3:11

--------------|------------|----------------|---------------------------------
--------------|------------|----------------|---------------------------------
--------------|------------|----------------|---------------------------------
----4---------|4---3-2-----|-4-3-2-----4/5--|---------------------------------
---------3----|--------4-3-|-------4-3-2/3--|----7-6-5----7-6-5-----7-6-5-----
-2---2-----2--|------------|----------------|-0---------0--------0---------0--
 3:11 - 3:19         end1,3          end2,4   3:19 - 3:22 & 3:35 - 3:42

--------------|--------------|------------|----------------|------------------
--------------|--------------|------------|----------------|------------------
--------------|--------------|------------|----------------|------------------
--------------|----6---------|6--5-4------|-6-5-4-------7--|------------------
-7-6-5--------|----------5---|-------6-5--|-------6-5-4-5--|------------------
-------7-6-5--|-4----4-----4-|------------|----------------|------------------
            x2  3:26 - 3:35         end1,3           end2,4

--------------|--------------|----------------|-------------------------------
--------------|--------------|----------------|-------------------------------
--------------|--------------|----------------|-------------------------------
----4---------|--4--3-2------|-4-3-2-------5--|-4-3-2-------5-----------------
----------3---|---------4-3--|-------4-3-2-3--|-------4-3-2-3-----------------
-2----2-----2-|--------------|----------------|-------------------------------
 3:42 - 3:52           end1,3            end2               end4

----------------------------19-----20-------22-----b24---24r22v---------------
-19------21------21-b-22-----------/------------------------------------------
-21b23----------------------------/-------------------------------------------
------------------------------------------------------------------------------
------------------------------------------------------------------------------
------------------------------------------------------------------------------
 solo - Tommy T. Baron            w/bar

------------------19-----------------20-20-19---------------------------------
-/22---21v---19----------22----21-----------------22--------------------------
------------------------------------------------------21--\-------------------
-----------------------------------------------------------\------------------
------------------------------------------------------------\-----------------
-------------------------------------------------------------\----------------
                                                           w/bar

------------------------------------------------------------------------------
----19---------------17-------------------------------------------------------
--/---------18-17-18----18-17-17-16----16b18r16v----17b21---r---14----14h16p--
-/----------------------------------19-----------------------------17---------
------------------------------------------------------------------------------
------------------------------------------------------------------------------
 w/bar

------------------------------------------------------------------------------
------------------------------------------------------------------------------
-14---------------------------------------------------------------------------
----16-14-16------------------------------------------------------------------
--------------16-14-16-----------------------------------17----17-16-14-16----
-----------------------16-14----17-14----12/14--17-14-17----14----------------


-----------------------------------------------------------------17-20--------
--------------------17--19b21---r19---17---20p19p17-20p19p17--20--------------
-----------14h16/18-----------------------------------------------------------
-14-16------------------------------------------------------------------------
------------------------------------------------------------------------------
------------------------------------------------------------------------------


-17h19p17----17---------------------------------------------------------------
----------20----20-17-20-17---------------------------------------------------
----------------------------19-17b19r17--23--r--21---18h21p18h21p18h21p18-----
----------------------------------------------------/------/-----/-----/------
------------------------------------------------------------------------------
------------------------------------------------------------------------------
                                                     scoops w/ bar

------------------------------------------------------------------------------
------------------------------------------------14-14h17h19--b22--r19---------
-18-17-16-16----16--16b18r16b18r16-----14h16h18-------------------------------
-------------19--------------------19-----------------------------------------
------------------------------------------------------------------------------
------------------------------------------------------------------------------


-16-17-14-16----14-16-17-14-16-17-19-17-16------------------------------------
-------------17----------------------------19-17-15-17-19-17-15-17p15p14------
------------------------------------------------------------------------------
------------------------------------------------------------------------------
------------------------------------------------------------------------------
------------------------------------------------------------------------------


--------------------------------------------------------------------17/19-----
----------------------------------------------------14h15h17p15p14------------
-16-14-13-14-16-14-13----------------13h14h16p14p13---------------------------
----------------------16-14-12-14-16------------------------------------------
------------------------------------------------------------------------------
------------------------------------------------------------------------------


-17p16------------------------------------------------------------------------
-------17---------------------------------------------------------------------
----------16\13h14h16p14p13h14h16p14p13---------------------------------------
----------------------------------------14/16v--------------------------------
------------------------------------------------------------------------------
------------------------------------------------------------------------------

  Visit MetalTabs.com for more metal tablature

bottom separator

Contact Us | Privacy Policy | Disclaimer | Legal Notice
Copyright © 2001-2014 MetalTabs.com. All Rights Reserved.