top separator

Home

Forum

What's New

Submit a Tab

FAQ

Links

Contact Us

Link to Us

MetalTabs.com logo

Bands

0-9

A

B

C

D

E

F

G

H

I

J

K

L

M

N

O

P

Q

R

S

T

U

V

W

X

Y

Z

Search

What

Where
 

Electric Wizard - "We, The Undead" Guitar Tab

Plain Text Version
More Electric Wizard Tabs

Hits: 2379
Updated: 2006-08-28 02:54:45

 

By:

sendpm.gif

email.gif

Important note
This tab is available online because we obtained explicit permission from Electric Wizard or their label.


#----------------------------------PLEASE NOTE---------------------------------#
#This file is the author's own work and represents their interpretation of the #
#song. You may only use this file for private study, scholarship, or research. #
#Unless specified otherwise, this is NOT an official tab from the band members.#
#------------------------------------------------------------------------------#

  Visit MetalTabs.com for more metal tablature
  
-------------------------------------------------------------------------------
		 We, the Undead - Electric Wizard
-------------------------------------------------------------------------------
Tabbed by: DehumanizeR
Email: stivharris@hotmail.com

Tuning: C
Song: We, the Undead
Album: Let Us Pray...
Label: Rise Above
Other: This is one of the best bands in the world.
This album is not as heavy as Dopethrone but it still kicks ass.
I left out the solo but it's similar to riff 1 just higher and gets more intense

Riff 1
|----------------------------------------------|
|----------------------------------------------|
|----------------------------------------------|
|-------------------------7-9-99-999---5-x-----|
|-7-9-99-999--7-9-99-999--5/7-77-777---3-x-5---|
|-5/7-77-777--5/7-77-777-------------------3---|

Riff 2
|----------------------------------------------|
|----------------------------------------------|
|----------------------------------------------|
|----------------------------------------------|
|----------5h7-7-7--3-x------------------------|
|-5h7-7-7---------------3~-x3------------------|

Riff3
|----------------------------------------------|
|----------------------------------------------|
|----------------------------------------------|
|------------------99-7-9--10-7-10-7-10/7--7/9-|
|-9-9-9-9-9-9-9-9----------8--5-8--5--8/5--5/7-|
|-7-7-7-7-7-7-7-7------------------------------|

Breakdown
|----------------------------------------------|
|----------------------------------------------|
|----------------------------------------------|
|----------------------------------------------|
|-8--5--8--5--8p5--5h7-------------------------|
|----------------------------------------------|


| /  slide
| h  hammer-on
| p  pull-off
| ~  vibrato
| x  Mute note

  Visit MetalTabs.com for more metal tablature

bottom separator

Contact Us | Privacy Policy | Disclaimer | Legal Notice
Copyright © 2001-2014 MetalTabs.com. All Rights Reserved.