top separator

Home

Forum

What's New

Submit a Tab

FAQ

Links

Contact Us

Link to Us

MetalTabs.com logo

Bands

0-9

A

B

C

D

E

F

G

H

I

J

K

L

M

N

O

P

Q

R

S

T

U

V

W

X

Y

Z

Search

What

Where
 

Atheist - "Green" Bass Tab

Plain Text Version
More Atheist Tabs

Hits: 4964
Rated: 5.00 out of 5 (2 votes)
Updated: 2006-08-28 02:35:52

 

By:

epitaph

sendpm.gif

email.gif

Important note
This tab is available online because we obtained explicit permission from Atheist or their label.


#----------------------------------PLEASE NOTE---------------------------------#
#This file is the author's own work and represents their interpretation of the #
#song. You may only use this file for private study, scholarship, or research. #
#Unless specified otherwise, this is NOT an official tab from the band members.#
#------------------------------------------------------------------------------#

  Visit MetalTabs.com for more metal tablature
  
Band: Atheist
Album: Elements
Song: Green

Copyright (c) Music for Nations 1993 / Relapse Records 2006
Version 1.0 - 14th of August, 2006

Transcribed By: L. Nurminen (aka, Epitaph)
Email: Gaborik10@hotmail.com / Gaborik@welho.com

EADG (From low to high)

0:02
|-/18-17-15-----15-|
|------------17----|
|------------------|
|------------------|

0:04
|---------------------------|
|---------------------------|
|--------2--1-1-----------2-|
|-0--1-1--------0-0-1-1-2---|

|-----------------------------------------------------|
|-----------------1---------------------1-------------|
|-1-1-----------2---2-1-1-1-----------2---2-1-1-1-----|
|-----0-0-1-1-2-------------0-0-1-1-2-------------0-0-|

0:18
|----------------|
|----------------|
|-1-4-1----1-4---|
|-------1------2-|

0:22
|-----------------------------| This is just a raw guess what
|-----------------------------| Tony played. Atleast for me
|-----------------------------| its impossible to hear.
|-3-2-0-0-3-3-3-3-2-0-0-3-3-3-|

|----------------------|
|-------7-7--------7-7-|
|-7----------7---------|
|---7-5--------7-5-----|

0:41
|----------|
|----------|
|----------|
|-6-6--6-6-|

0:43

Bass solo. This time, I'll leave it to you.
If I'll figure it out one day, I'm sure I'll post it here.

0:49
|----------|
|----------|
|----------|
|-6-6--6-6-|

|----------------------------------------------------------------|
|-----------1-------------------1-------------------1------------|
|---------2----1-1--1---------2---2-1-1-----------2---2--1-1-----|
|-0-0-1-2-------------0-0-1-2-----------0-0-1-1-2------------0-0-|

1:00
|----------------|
|----------------|
|-1-4-1----1-4---|
|-------1------2-|

1:02 Repeat three times
|-----------------------------|
|-----------------------------|
|-----------------------------|
|-3-2-0-0-3-3-3-3-2-0-0-3-3-3-|

|----------------------|
|-------7-7--------7-7-|
|-7----------7---------|
|---7-5--------7-5-----|

1:19
|-----------------------------|
|-----------------------------|
|-----------------------------|
|-3-2-0-0-3-3-3-3-2-0-0-3-3-3-|

1:22
|----------|
|----------|
|----------|
|-6-6--6-6-|

|-------------------------------------------------------------|
|-------------------------------------------------------------|
|---------2-2-1-1---------2-2-1-1---------2-2-1-1---------2-2-|
|-0-0-1-1---------0-0-1-1---------0-0-1-1---------0-0-1-1-----|

1:32
|--------|
|--------|
|-1-1--1-|
|--------|

|--------------|
|-2-0-3--------| Four
|------------2-| Times
|-------0-1----|

1:45
|--------|
|--------|
|-1-1--1-|
|--------|

1:49 Repeat Four Times
|----------------------|
|-------7-7--------7-7-|
|-7----------7---------|
|---7-5--------7-5-----|

|-----------------------------|
|-----------------------------|
|-----------------------------|
|-3-2-0-0-3-3-3-3-2-0-0-3-3-3-|

2:11
|----------|
|----------|
|----------|
|-6-6--6-6-|

2:12 (Improvise)
|------------------------------------------------------------------|
|-----------1--------------------1------------1--------------------|
|---------2---2-1-1--1---------2---2-1-1--1-1---2-1-------2-1-1--1-|
|-0-0-1-2--------------0-0-1-2----------------------0-1-2----------|

|-----------------------------------------------------------------|
|-----------1----------------------------------------1------------|
|---------2---2-1-1--1-1-1----------1-1--1---------2---2-1-1--1-1-|
|-0-0-1-2------------------2-1-0-2---------0-0-1-2----------------|

|----------------|
|----------------|
|---------2--1-1-|
|-0-0-1-2--------|

2:33
|---------------------------------------------------------------|
|---------------------------------------------------------------|
|-----------2-2-1-1---------2-2-1-1---------2-2-1-1---------2-2-|
|-1-0-0-1-1---------0-0-1-1---------0-0-1-1---------0-0-1-1-----|

2:42
|---------------|
|-2-0-3---------| Four
|-------------2-| Times
|--------0-1----|

2:54
|--------------------------4-|
|----------------------------|
|-1------------------2-2-2---|
|----0-0-0-0-1-1-1-1---------|

|----------------------------|
|----------------------------| Three
|-1------------------2-2-2-2-| Times
|----0-0-0-0-1-1-1-1---------|

3:06
|---------------|
|-2-0-3---------| Four
|-------------2-| Times
|--------0-1----|

Done!

  Visit MetalTabs.com for more metal tablature

bottom separator

Contact Us | Privacy Policy | Disclaimer | Legal Notice
Copyright © 2001-2014 MetalTabs.com. All Rights Reserved.