top separator

Home

Forum

FAQ

Contact Us

Link to Us

MetalTabs.com logo

Bands

0-9

A

B

C

D

E

F

G

H

I

J

K

L

M

N

O

P

Q

R

S

T

U

V

W

X

Y

Z

Skinless - "The Optimist" Guitar Tab

Plain Text Version
More Skinless Tabs

Hits: 3445
Updated: 2006-08-28 02:32:41

By:

Yura


#----------------------------------PLEASE NOTE---------------------------------#
#This file is the author's own work and represents their interpretation of the #
#song. You may only use this file for private study, scholarship, or research. #
#Unless specified otherwise, this is NOT an official tab from the band members.#
#------------------------------------------------------------------------------#

  Visit MetalTabs.com for more metal tablature
  
--- S K I N L E S S  ---
                             "The Optimist"
                     From album: "Foreshadowing Our Demise"
                     Copyright Relapse Records 2001 
                     Version: 2.0 (August'06)
                     Transcribed by: Yura Kowalchuk
                     Contact:[yura@grindcore.net]
                             [yura_kowalchuk@mail.ru]
                    http://brutaltabs.musica.mustdie.ru

                            TABULATURE LEGEND:
                   " - tremolo             h - hammer on
                   ~ - vibrato             \ - slide down
                   p - pull off            / - slide down
                  tr - trill               ^ - pinch harmonics
                (),= - sustained note      b - bend string
                p.m. - palm muting         t - tapping

::TABULATURE LEGEND::
 " - tremolo             h - hammer on
 ~ - vibrato             \ - slide down
 p - pull off            / - slide down
 tr - trill              ^ - pinch harmonics
 = - sustained note      b - bend string
 p.m. - palm muting      t - tapping

Tuning (low to high): B, E, A, D, g, bb

[Riff 1 (x3)]
|---------------------------|---------------------------|
|---------------------------|---------------------------|
|---------------------------|---------------------------|
|---------------------------|---------------------4--5--|
|-7-3-5--4--3--4-3-3--5--4--|-7-3-5--4--3--4-3-3--2--3--|
|-5-1-3--2--1--3-2-1--3--2--|-5-1-3--2--1--3-2-1--2--3--|
  . .          . .            . .          . .

[Riff 2 (x2)]
|----------------------------|---------------------------|
|----------------------------|---------------------------|
|----------------------------|---------------------------|
|----------------------------|---------------------------|
|-3--3/5-7--5--3-5-3--5-4-5--|-3--3/5-7--5--3-5-3--6--5--|
|-1--1/3-5--3--1-3-1--3-4-3--|-1--1/3-5--3--1-3-1--4--3--|
  .      .  .  . . .  . . .    .      .  .  . . .  .  .

[Riff 3a (x2)]
|-----------------------------------|
|-----------------------------------|
|-----------------------------------|
|-----------------------------------|
|-3=========-6--5--4=========-7--6--|
|-1=========-4--3--2=========-5--4--|

[Riff 3b (x2)]
|---------------------------------|---------------------------------|
|---------------------------------|---------------------------------|
|---------------------------------|---------------------------------|
|---------------------------------|---------------------------------|
|-3-3-3-3-3-3-3-3-6-6-6-6-5-5-5-5-|-4-4-4-4-4-4-4-4-7-7-7-7-6-6-6-6-|
|-1-1-1-1-1-1-1-1-4-4-4-4-3-3-3-3-|-2-2-2-2-2-2-2-2-5-5-5-5-4-4-4-4-|
  . . . . . . . . . . . . . . . .   . . . . . . . . . . . . . . . .

[Riff 3a (x2)]
|-----------------------------------------------------|
|-----------------------------------------------------|
|-----------------------------------------------------|
|-----------------------------6p4p3-------6p4p--------|
|-3=========-6--5--4=========-------6p4p3-------6p4p3-|
|-1=========-4--3--2=========-------------------------|

[RIFF 3b (x2)] [RIFF 3c (x2)] [RIFF 2 (x2)]

Outro A
|-----------
|-----------
|-----------
|-----------
|-8---6---5-
|-6---4---3-
  .   .   .

[Riff 4a (x4)]
|---------------------------------------------------|
|---------------------------------------------------|
|---------------------------------------------------|
|---------------------------------------------------|
|-6-------------6-------------8--5-5-6--5--3--5--3--|
|-4-3-3-3-3-3-3-4-3-3-3-3-3-3-6--3-3-4--3--1--3--1--|
    . . . . . .   . . . . . . .  . . .  .  .  .  .

[Riff 5 (x3)]
|-------------------------|
|-------------------------|
|-------------------------|
|-------------------------|
|-8--6--5-5-6--5--3--5--3-|
|-6--4--3-3-4--3--1--3--1-|
  .  .  . . .  .  .  .  .

[Riff 4b (x4)]
|-------------------------------------------------|
|-------------------------------------------------|
|-------------------------------------------------|
|-------------------------------------------------|
|-6-----------6-----------8--6--5--6--5--3--5--3--|
|-4-3--3-3-3--4-3--3-3-3--6--4--3--4--3--1--3--1--|
    .  . . .    .  . . .  .  .  .  .  .  .  .  .

[Riff 5 (x2)]
|----------------------------------------------------------------
|----------------------------------------------------------------
|----------------------------------------------------------------
|------6-6-------6/8-8---------6-6------------------------^------
|-5----4-4----5--4/6-6----5----4-4------8--6--5--6--5--3--1~~~~~-
|-3----4-4----3--4/6-6----3----4-4------6--4--3--4--3--1---------
                                        .  .  .  .  .  .

----------------------------------------------------------------|
----------------------------------------------------------------|
----------------------------------------------------------------|
------6-6-------6/8-8---------6-6-------------------------------|
-5----4-4----5--4/6-6----5----4-4-------------------------------|
-3----4-4----3--4/6-6----3----4-4------6--4--3--4--1--3--1~~~~~-|

[Riff 6 (x6)]
|-------------------------|----------------------------|
|-------------------------|----------------------------|
|-------------------------|----------------------------|
|----------------------4--|-------------------------4--|
|-2--6--4--3--2--3--4--2--|-2--6-6-4-4-3-3-2--3--4--2--|
|-0--4--2--1--0--1--2-----|-0--4-4-2-2-1-1-0--1--2-----|
  .  .  .  .  .  .  .       .  . . . . . . .  .  .

[Riff 7 (x4)]
|-------------------------------|-----------------------------|
|-------------------------------|-----------------------------|
|-------------------------------|-----------------------------|
|----------------------------^--|-----------------------------|
|----------------------------2~-|--------------------4--4--4--|
|-1--1-1-2p1-4p1-2p1-4p1-2p1----|-1--1-1-2p1-4p1-2p1-2--2--2--|

[RIFF 6 (x4)]

[Outro B]
|----------------------------------
|----------------------------------
|----------------------------------
|----------------------------------
|-2--------5--4--------------------
|-0--------3--2------2-2~b~-2~b~---
| .
|-------------
|-------------
|-------3-----
|-0--0-----3--

[Riff 8b]
|----------------------------------|
|----------------------------------|
|----------------------------------|
|-------5-----------4~b~-4~b~-4~b~-|
|-2--2--3--5--4--------------------|
|-0--0-----3--2--------------------|

[Riff 8a]
|----------------------------------|
|----------------------------------|
|----------------------------------|
|-------5--------------------------|
|-2--2--3--5--4--------------------|
|-0--0-----3--2-----2-2~b~-2~b~----|

RIFF 8b
RIFF 8a
RIFF 8b
RIFF 8a
RIFF 8b
RIFF 1 (x4)

[Outro C]
|---------------------
|---------------------
|---------------------
|---------------------
|-3--3/5-7--5--3-5-3--
|-1--1/3-5--3--1-3-1--
  .      .  .  . . .

RIFF 8 (x4)
RIFF 6 [first bar only]
OUTRO 1
RIFF 4a (x4)
RIFF 5 (x3)
RIFF 4b (x4)

END OF SONG

  Visit MetalTabs.com for more metal tablature

bottom separator

Contact Us | Privacy Policy | Disclaimer
Copyright © 2001-2014 MetalTabs.com. All Rights Reserved.