top separator

Home

Forum

What's New

Submit a Tab

FAQ

Links

Contact Us

Link to Us

MetalTabs.com logo

Bands

0-9

A

B

C

D

E

F

G

H

I

J

K

L

M

N

O

P

Q

R

S

T

U

V

W

X

Y

Z

Search

What

Where
 

Debauchery (DE) - "Death Metal Warmachine" Guitar Tab

Plain Text Version
More Debauchery (DE) Tabs

Hits: 4767
Rated: 4.50 out of 5 (2 votes)
Updated: 2006-08-28 02:29:15

 

By:

grindi

sendpm.gif

email.gif

Important note
This tab is available online because we obtained explicit permission from Debauchery (DE) or their label.


#----------------------------------PLEASE NOTE---------------------------------#
#This file is the author's own work and represents their interpretation of the #
#song. You may only use this file for private study, scholarship, or research. #
#Unless specified otherwise, this is NOT an official tab from the band members.#
#------------------------------------------------------------------------------#

  Visit MetalTabs.com for more metal tablature
  
Band:  (Debauchery)
Album: (Torture Pit)
Song:  (Death Metal Warmachine)

Copyright (c)  (MDD) (2003)
Version 1.0 - (16.05.2006)

Transcribed By: (grindi)
Email:          (Danko-Jones@gmx.net)


.  - palm mute           /  - slide up to
\  - slide down to       ~  - vibrato
h  - hammer on           b  - Bend
p  - pull off            Suffixes for bend
t  - tap                 f  - full bend    h - half bend
ph - pinched harmonic    q  - quarter bend t - tap bend
*  - see comment         ^  - Hold bend    r release bend
x  - Stuccatto           ~  - vibrato bend
,  - slight palm mute    () - ghost note, sustained note
"  - tremolo note        <> - Trill

Tuning: D (D, G, C, F, A, D)


Riff 1
|----------------------------------------------------------|
|----------------------------------------------------------|
|----------------------------------------------------------|
|-2--5----------2--5----------2--5----------2--5-5-5-5-5-5-|
|-2--5----------2--5----------2--5----------2--5-5-5-5-5-5-|
|-0--3-0-<5>-0--0--3-0-<5>-0--0--3-0-<5>-0--0--3-3-3-3-3-3-|
       .     .       .     .       .     .

Riff 2

|----------------------------------------------------|
|----------------------------------------------------|
|----------------------------------------------------|
|-2--5---7----2--5---7----2--5---7----2--5-5-5-5-5-5-|
|-2--5---7----2--5---7----2--5---7----2--5-5-5-5-5-5-|
|-0--3-0-5-0--0--3-0-5-0--0--3-0-5-0--0--3-3-3-3-3-3-|
       .   .       .   .       .   .

Riff 3

|------------------------------------|
|------------------------------------|
|---------7-7-7----------------------|
|---------5-5-5--7-7-7---------------|
|-2--2-2---------5-5-5--7-7-7-7--5-5-|
|-0--0-0----------------5-5-5-5--3-3-|


Riff 4

|----------------------|
|----------------------|
|---------7-7-7--------|
|---------5-5-5--7-7-7-|
|-2--2-2---------5-5-5-|
|-0--0-0---------------|

Riff 5 - open Chords - listen for the rythem

  E   G   D   Am
|---|-3-|-2-|---|
|---|-3-|-3-|-1-|
|-1-|---|-2-|-2-|
|-2-|---|---|-2-|
|-2-|-2-|---|---|
|---|-3-|---|---|

Riff 6

|--------------------------|
|--------------------------|
|-------7~~----------------|
|-2~~5~~7~~7---------------|
|-2~~5~~5~~7---------------|
|-0~~3~~---5-5555555555555-|
             .............

Riff 7

|------------------|
|------------------|
|------------------|
|-7--7-7--5-5-5--2-|
|-7--7-7--5-5-5--2-|
|-5--5-5--3-3-3--0-|

ORDER:

Riff 1          2x
Riff 2          2x
Riff 3          3x
Riff 4          1x
Riff 1          1x
Riff 2          1x
Riff 3          3x
Riff 4          1x
Riff 5          2x
Riff 6          2x
Riff 1          2x
Riff 2          2x
Riff 3          3x
Riff 4          1x
Riff 7          1x

  Visit MetalTabs.com for more metal tablature

bottom separator

Contact Us | Privacy Policy | Disclaimer | Legal Notice
Copyright © 2001-2014 MetalTabs.com. All Rights Reserved.