top separator

Home

Forum

What's New

Submit a Tab

FAQ

Links

Contact Us

Link to Us

MetalTabs.com logo

Bands

0-9

A

B

C

D

E

F

G

H

I

J

K

L

M

N

O

P

Q

R

S

T

U

V

W

X

Y

Z

Search

What

Where
 

Engorged - "Pigs Blood Blues (Razorback Compilation "The Horror Hive")" Guitar Tab

Plain Text Version
More Engorged Tabs

Hits: 1833
Updated: 2006-08-28 02:27:38

 

By:

sendpm.gif

email.gif

Important note
This tab is available online because we obtained explicit permission from Engorged or their label.


#----------------------------------PLEASE NOTE---------------------------------#
#This file is the author's own work and represents their interpretation of the #
#song. You may only use this file for private study, scholarship, or research. #
#Unless specified otherwise, this is NOT an official tab from the band members.#
#------------------------------------------------------------------------------#

  Visit MetalTabs.com for more metal tablature
  
Band:  Engorged
Album: Razorback Compilation "The Horror Hive"
Song:  Pigs Blood Blues

Copyright (c)  Razorback Records 2004
Version 1.0 - April/27/06

Transcribed By: Haemorrhage
Email:          xlos_crudos4x@yahoo.com


.  - palm mute           /  - slide up to
\  - slide down to       ~  - vibrato
h  - hammer on           b  - Bend
p  - pull off            Suffixes for bend
t  - tap                 f  - full bend    h - half bend
ph - pinched harmonic    q  - quarter bend t - tap bend
*  - see comment         ^  - Hold bend    r release bend
x  - Stuccatto           ~  - vibrato bend
,  - slight palm mute    () - ghost note, sustained note
"  - tremolo note        <> - Trill

Tune down 2.5 steps

I started tabbing again today,and this is what i have so far
I hope you all like it.

Riff 1
|----------------------------------------------|
|----------------------------------------------|
|----------------------------------------------|
|----------------------------------------------|
|-2----------5/4---5/4---5--2----------6--5--4-|
|-0-00-00-00-3/2-0-3/2-0-3--0-00-00-00-4--3--2-|
    .. .. ..     .     .      .. .. ..

Riff 2
|--------------------|
|--------------------|
|--------------------|
|--------------------|
|------5-6------6-5--|
|-0"---3-4-1"---4-3--|
  .        .

Riff 3
|----------------------|
|----------------------|
|----------------------|
|----------------------|
|----------------------|
|-0"--3"-4"--1"--4"-3"-|


Riff 4
|----------------|
|----------------|
|----------------|
|----------------|
|-2--5-6--3--6-5-|
|-0--3-4--1--4-3-|
     .       .


End w/
|---|
|---|
|---|
|---|
|-2-|
|-0-|

  Visit MetalTabs.com for more metal tablature

bottom separator

Contact Us | Privacy Policy | Disclaimer | Legal Notice
Copyright © 2001-2014 MetalTabs.com. All Rights Reserved.