top separator

Home

Forum

What's New

Submit a Tab

FAQ

Links

Contact Us

Link to Us

MuSpy.com

MetalTabs.com logo

Bands

0-9

A

B

C

D

E

F

G

H

I

J

K

L

M

N

O

P

Q

R

S

T

U

V

W

X

Y

Z

Search

What

Where
 

Cruachan - "Victory Reel" Guitar Tab

Plain Text Version
More Cruachan Tabs

Hits: 2124
Rated: 5.00 out of 5 (2 votes)
Updated: 2006-08-24 01:35:25

 

By:

sendpm.gif

email.gif

Important note
This tab is available online because we obtained explicit permission from Cruachan or their label.


#----------------------------------PLEASE NOTE---------------------------------#
#This file is the author's own work and represents their interpretation of the #
#song. You may only use this file for private study, scholarship, or research. #
#Unless specified otherwise, this is NOT an official tab from the band members.#
#------------------------------------------------------------------------------#

  Visit MetalTabs.com for more metal tablature
  
Author/Artist: Cruachan
Title: The Victory Reel
Album: Folk Lore
Transcribed by: Shai Deshe
Email: Pivodka@gmail.com

accepting requests

Per usual, most people find my fingerings a bit uncomfortable. Learn how to
play some classic music you inane bums!
Feel free to create an easier to play version as long as you keep your hands
off my name on the top [feel free to add yours].

Order of the song is Parts: I II III IV III IV

-||------------------------------|----------------------|---------------------
-||------------------------------|----------------------|---------------------
-||-12/8-------------------------|----------------------|---------------------
-||------------------------------|-0--------------------|---------------------
-||----------3----0----3--0------|----3-1--0-----0-1--0-|-3--1-0---------0----
-||-------------1----1------1--1-|-----------3----------|---------3-1--3---1--
    YES, this is a time signature! notes are ordered rythmcically, two

-|-------------------||-------------------------------------------------------
-|-----------------0-||-------------------------------------------------------
-|-------------------||-------------------------------------------------------
-|-------------------||-------------------------------------------------------
-|-1---0-----------0-||-------------------------------------------------------
-|---3---3-1---------||-------------------------------------------------------
 spaces means an eight meajure worth of rest.              Part I

-||-----------------------|---------------------|----------------------|------
-||-----------------------|---------------------|----------------------|------
-||-----------------------|---------------------|-2----------2---------|------
-||-----------------------|-0-------------------|----------------------|------
-||---3----0----3--0------|----3-1--0----0-1--0-|----3-3-3-3---3-3-3-3-|------
-||------1----1------1--1-|-----------3---------|----------------------|------
    accoustic guitar play's one octave above electric, transcription below

-|------------------------||--------------------------------------------------
-|----------------------0-||--------------------------------------------------
-|------------------------||--------------------------------------------------
-|---------------2-3------||--------------------------------------------------
-|-0-2-3-5--3-5---------0-||--------------------------------------------------
-|------------------------||--------------------------------------------------
                                                           Part II

-||---------------------|---------------------|---------------------|---------
-||---------------------|---------------------|---------------------|---------
-||---------------------|--------------2------|---------------------|---------
-||-3-3-3-3-2--3-3------|------5-5-3-5----5-3-|-3-3-3-3-2--3-3------|---------
-||-----------------5-5-|-3-5-----------------|-----------------5-5-|---------
-||---------------------|---------------------|---------------------|---------


-|---------------------------||-----------------------------------------------
-|-------------------------0-||-----------------------------------------------
-|---------------------------||-----------------------------------------------
-|---------------------------||-----------------------------------------------
-|---------8---------------0-||-----------------------------------------------
-|-3-5-3-5-----5-3--1-1------||-----------------------------------------------
                                                           Part III

-||------------------|-----------------|-------------------|------------------
-||------------------|-----------------|-------------------|------------------
-||------------------|-----------------|-------------------|------------------
-||-3----------------|-3---------------|-3-----------------|------------------
-||----5--3-0-3--3-3-|---5--3-0-1------|---5--3-0-3--3-3---|------------------
-||------------------|-------------3-3-|-------------------|------------------


-|------------------------|---------------------------------------------------
-|----------------------0-|---------------------------------------------------
-|------------------------|---------------------------------------------------
-|------------------------|---------------------------------------------------
-|---------8------------0-|---------------------------------------------------
-|-3-5-3-5---5-3-1-1------|---------------------------------------------------
                                                           Part IV

-||--------------------|---------------------|---5----------5----------|------
-||--------------------|---------------------|------1-1-1-1----1-1-1-1-|------
-||---5----2----5--2---|---7--5-3--2-0--2-3--|-2-----------------------|------
-||-3----3----3------3-|-3-------------------|-------------------------|------
-||--------------------|---------------------|-------------------------|------
-||--------------------|---------------------|-------------------------|------


-|---------------0-1----||----------------------------------------------------
-|---0-1-3--1-3-------0-||----------------------------------------------------
-|-2--------------------||----------------------------------------------------
-|----------------------||----------------------------------------------------
-|--------------------0-||----------------------------------------------------
-|----------------------||----------------------------------------------------
                                                            Part II accoustic

-||--1-1-1-0--1-1------|------3-3-1-3-5--3-1-|---------1--------------||------
-||----------------3-3-|-1-3-----------------|----------------------0-||------
-||--------------------|---------------------|-0-2-0-2----2-0---------||------
-||--------------------|---------------------|-----------------3-3----||------
-||--------------------|---------------------|----------------------0-||------
-||--------------------|---------------------|------------------------||------
                                                            Part III accoust.

-||-1----------------|-1----------------|-1---------------|-------------------
-||----3--1---1--1-1-|----3--1----------|---3--1---1--1-1-|-------------------
-||---------2--------|---------2-3--0-0-|--------2--------|-------------------
-||------------------|------------------|-----------------|-------------------
-||------------------|------------------|-----------------|-------------------
-||------------------|------------------|-----------------|-------------------


-|---------------------|------------------------------------------------------
-|---------6---------0-|------------------------------------------------------
-|---------------------|------------------------------------------------------
-|-3-5-3-5---7-5-3-----|------------------------------------------------------
-|-------------------0-|------------------------------------------------------
-|---------------------|------------------------------------------------------
                                                           Part IV accoustic

  Visit MetalTabs.com for more metal tablature

bottom separator

Contact Us | Privacy Policy | Disclaimer | Legal Notice
Copyright © 2001-2014 MetalTabs.com. All Rights Reserved.