top separator

Home

Forum

What's New

Submit a Tab

FAQ

Links

Contact Us

Link to Us

MetalTabs.com logo

Bands

0-9

A

B

C

D

E

F

G

H

I

J

K

L

M

N

O

P

Q

R

S

T

U

V

W

X

Y

Z

Search

What

Where
 

Burzum - "Dominus Sathanas" Guitar Tab

Plain Text Version
More Burzum Tabs

Hits: 4711
Rated: 5.00 out of 5 (3 votes)
Updated: 2006-08-18 04:40:14

 

By:

sendpm.gif

email.gif

Important note
This tab is available online because we obtained explicit permission from Burzum or their label.


#----------------------------------PLEASE NOTE---------------------------------#
#This file is the author's own work and represents their interpretation of the #
#song. You may only use this file for private study, scholarship, or research. #
#Unless specified otherwise, this is NOT an official tab from the band members.#
#------------------------------------------------------------------------------#

  Visit MetalTabs.com for more metal tablature
  
Band:  BURZUM
Album: ASKE
Song:  DOMINUS SATHANAS

Copyright (c)  Deathlike Silence Productions, 1993

Transcribed By: Juha Räsänen
Email:          sofisti@postiloota.net


.  - palm mute
b  - Bend

This tab should be quite accurate.

Three guitars. There are some slides, hammer-ons, pull-offs etc.
in the song, but I have left them out of this tab.
You can figure them out by yourself. Improvise.

Listen to the song for correct timing and rhythm.

Tuning E A D G B E


RIFF 1

Guitar 1 (left channel)
|----------------------------------------------
|----------------------------------------------
|----------------------------------------------
|----------------------------2-----------------
|----------------------------------------------
|-1--------4--------1--------------------------
|
|-------------------------------------------------------|
|-------------------------------------------------------|
|-------------------------------------------------------|
|-------------------3-----------------------3-----------|
|-------------------------------------4--------4-----3--|
|-1--------0-----------------1--------------------------|


Guitar 2 (right channel)
|----------------------------------------------
|----------------------------------------------
|----------------------------------4--3--------
|-------3--6-----5--------3--6--------------6--
|----2-----------------2-----------------------
|-1-----------------1--------------------------
| .  .              .  .
|
|-------------------------------------------------------|
|-------------------------------------------------------|
|-------------------------------------------5-----------|
|-------3--2--------3--------------3--6--------6-----5--|
|----2--------------------------2-----------------------|
|-1--------------------------1--------------------------|
  .  .                       .  .



Fill 1

Guitar 1
|----------0----------|
|----------0----------|
|----------0----------|
|----------2----------|
|----------2----------|
|-1--------0----------|

Guitar 2
|----------0----------|
|----------0----------|
|----------0----------|
|-------3--2----------|
|----2-----2----------|
|-1--------0----------|
  .  .



RIFF 2

Both guitars
|-----------0----------|
|-----------0----------|
|-----------0----------|
|-3----4b---2----------|
|-3----4b---2----------|
|-1----2b---0----------|

       (bend slightly)


Fill 2

Both guitars
|------------|
|------------|
|------------|
|-3----------|
|-3----------|
|-1----------|



RIFF 3

Guitar 1
|-------------------------------------------------
|-------------------------------------------------
|-0-----------------5-----0-----------------5-----
|-2-----------4-5-4---4-5-2-----------4-5-4---4-5-
|-2-----------------------2-----------------------
|-0-----------------------0-----------------------
|
|-------------------------------------------------|
|-------------------------------------------------|
|-0-----------------5-----0-----------------------|
|-2-----------4-5-4---4-5-2-----------4-5-4-7-5-4-|
|-2-----------------------2-----------------------|
|-0-----------------------0-----------------------|


Guitar 2
|-------------------------------------------------
|-------------------------------------------------
|-------------------5-----------------------5-----
|-2-----------4-5-4---4-5-2-----------4-5-4---4-5-
|-2---2-2-2-2-------------2---2-2-2-2-------------
|-0---0-0-0-0-------------0---0-0-0-0-------------
|     . . . .                . . . .
|
|-------------------------------------------------|
|-------------------------------------------------|
|-------------------5-----------------------------|
|-2-----------4-5-4---4-5-2-----------4-5-4-7-5-4-|
|-2---2-2-2-2-------------2---2-2-2-2-------------|
|-0---0-0-0-0-------------0---0-0-0-0-------------|
       . . . .                . . . .



RIFF 4

Guitars 1 & 2
|--------------------------------------------
|--------------------------------------------
|--------------------------------------------
|--------------------------------------------
|------2----3----2---------------------------
|-0-------------------3------------3----2----
|
|-----------------------------------------|
|-----------------------------------------|
|-----------------------------------------|
|---------------------4----5----4---------|
|------2----3----2-------------------3----|
|-1---------------------------------------|



Lead 1

Guitar 3 (middle channel)
|-------------------------------------------------------------------------------
|-------------------------------------------------------------------------------
|-------------------------------------------------------------------------------
|-----9---10---9---(9)-------------------------9---10----9---11---12---11-------
|-7----------------------------------------8--------------------------------10--
|-------------------------------------------------------------------------------
|
|-------------------------------------------------------------------------------
|------------------------------------------------------------14---15---14-------
|---------------------------------------------11---12---11------------------12--
|-----9---10---9---12-----------12---11---10------------------------------------
|-7-----------------------------------------------------------------------------
|-------------------------------------------------------------------------------
|
|-------------------------------------------------------------------------------
|-------------------------------------------------------------------------------
|-------------------------------------------------------------------------------
|-----9---10---9-------------------------------9---10----9---11---12---11-------
|-7----------------10-----------10----9----8--------------------------------10--
|-------------------------------------------------------------------------------
|
|------------------------------------------------------------------------------|
|------------------------------------------------------------------------------|
|------------------------------------------------------------------------------|
|-----9---10---9---12----------------------------------------11---12---11------|
|-7----------------------------------------8---9---10----9------------------10-|
|------------------------------------------------------------------------------|



RIFF 5

Guitars 1 & 2
|-----------------------------------------------------------------------|
|-----------------------------------------------------------------------|
|-----------------------------------------------------------------------|
|-----------------------------------------------------------------------|
|----------2--------2-3------2----------------------------------3-------|
|-0------------------------------3-2-2--------3--------5------------5---|
 (let ring)


Lead 2

Guitar 3
|-----------------------------------------------------------------------
|-----------------------------------------------------------------------
|------------------------------------2--------------------------5---2---
|-2------------------------------5-4------------------------------------
|-----------------------------------------------------------------------
|-----------------------------------------------------------------------
|
|-----------------------------------------------------------------------
|-----------------------------------------------------------------------
|-4--------------------------4-5-4-2-4--------------------------4-5-4-2-
|-----------------------------------------------------------------------
|-----------------------------------------------------------------------
|-----------------------------------------------------------------------
|
|----------------------------------------------------------------------
|----------------------------------------------------------------------
|--------------------------------------------------------------2-------
|-2--------------------------5-4-2-4-4---------------------------5-4-2-
|----------------------------------------------------------------------
|----------------------------------------------------------------------
|                            . . . .                               . .
|
|----------------------------------------------------------------------
|----------------------------------------------------------------------
|----------------------------------------------------------------------
|-0----2---------------------4-5-4-0-2-------------------------4-5-4-0-
|----------------------------------------------------------------------
|----------------------------------------------------------------------
|
|----------------------------------------------------------------------
|----------------------------------------------------------------------
|----------------------------------------------------------------------
|-2----------------------------------2-------------------------4-5-4-0-
|----------------------------------------------------------------------
|----------------------------------------------------------------------
|
|----------------------------------------------------------------------|
|----------------------------------------------------------------------|
|----------------------------------------------------------------------|
|-2--------------------------------------------------------------------|
|----------------------------------------------------------------------|
|----------------------------------------------------------------------|


Play in the following order:

1  - RIFF 1 X 2

2  - Fill 1 X 1

3  - RIFF 2 X 3

4  - Fill 2 X 1

5  - RIFF 3 X 2

6  - RIFF 4 X 2

6b - RIFF 4 X 4, Lead 1 joins


7  - RIFF 5 until fade out (about X 6)

     Lead 2 until fade out

There.

  Visit MetalTabs.com for more metal tablature

bottom separator

Contact Us | Privacy Policy | Disclaimer | Legal Notice
Copyright © 2001-2014 MetalTabs.com. All Rights Reserved.