top separator

Home

Forum

What's New

Submit a Tab

FAQ

Links

Contact Us

Link to Us

MetalTabs.com logo

Bands

0-9

A

B

C

D

E

F

G

H

I

J

K

L

M

N

O

P

Q

R

S

T

U

V

W

X

Y

Z

Search

What

Where
 

Einherjer - "Ironbound" Guitar Tab

Plain Text Version
More Einherjer Tabs

Hits: 6039
Rated: 3.00 out of 5 (5 votes)
Updated: 2006-08-18 04:39:13

 

By:

sendpm.gif

email.gif

Important note
This tab is available online because we obtained explicit permission from Einherjer or their label.


#----------------------------------PLEASE NOTE---------------------------------#
#This file is the author's own work and represents their interpretation of the #
#song. You may only use this file for private study, scholarship, or research. #
#Unless specified otherwise, this is NOT an official tab from the band members.#
#------------------------------------------------------------------------------#

  Visit MetalTabs.com for more metal tablature
  
Band:  Einherjer
Album: Blot
Song:  Ironbound

Transcribed By: wildchild
Email:          deadpagan@gmai.com

Tunning Standard E

Intro lead guitar   (riff 1)
E||--------|---------------------------|-------|-----------------------|
B||--------|---------------------------|-------|-----------------------|
G||--------|---------------------------|-------|-----------------------|
D||--------|--------------8----9a.h----|-------|-----------------------|
A||--11----|--10----11-----------------|--7----|--8----------8----7----|
E||--------|---------------------------|-------|-------10--------------|



-----------------------|----------|-------------------------|------------|
-----------------------|----------|-------------------------|------------|
-----------------------|----------|-------------------------|------------|
-----------------------|--9a.h----|--------------------8----|--9---------|
-----------------11----|----------|--11----10----11---------|-------7----|
--9----10--------------|----------|-------------------------|------------|

                                            (x2)
-----------------------|------------------------|------|------|------|------|
-----------------------|------------------------|------|------|------|------|
-----------------------|------------------------|------|------|------|------|
-----------------------|-------------10----8----|------|------|------|------|
--8----------8----7----|------------------------|------|------|------|------|
-------10--------------|--9----10---------------|------|------|------|------|

Intro 2nd guitar  (riff 1)

Pista 2

E||----------------------|----------------------|----------------------|
B||----------------------|----------------------|----------------------|
G||----------------------|----------------------|----------------------|
D||-----------------9/---|-----------------9/---|-----------------9/---|
A||-----------------7/---|-----------------7/---|-----------------7/---|
E||--0----0----0---------|--0----0----0---------|--0----0----0---------|



----------------------|----------------------|----------------------|
----------------------|----------------------|----------------------|
----------------------|----------------------|----------------------|
-----------------9/---|----------------------|-----------------7----|
-----------------7/---|-----------------8----|-------8--------------|
--0----0----0---------|--6----6----6---------|--9---------9---------|


                                                                           (x2)
-----------------------|----------------------|----------------------|-------|
-----------------------|----------------------|----------------------|-------|
-----------------------|----------------------|----------------------|-------|
-------7---------------|----------------------|----------------------|--9/---|
--8---------8----------|--8----7----8----7----|----------------------|--7/---|
-----------------10----|----------------------|--8----0----0----0----|-------|

after this, one guitar play this:

RIFF 2

------|----------------------|----------------------|----------------------|
------|----------------------|----------------------|----------------------|
------|----------------------|----------------------|----------------------|
------|--6-------------------|--7-------------------|--7----7----7----7----|
------|--5-------------------|--5----5----5----5----|--5-------------------|
------|-------0----0----0----|----------------------|----------------------|
              pm   pm   pm           pm   pm   pm           pm  pm    pm


-------------|----------------------|----------------------|------------------|
-------------|----------------------|----------------------|------------------|
-------------|----------------------|----------------------|------------------|
--10----8----|--6-------------------|--7-------------------|--6----10----8----|
-------------|--5-------------------|--5-------------------|--5---------------|
-------------|-------0----0----0----|-------0----0----0----|------------------|
  pm   pm            pm   pm   pm           pm  pm  pm             pm    pm


----------------------|----------------------|----------------------|
----------------------|----------------------|----------------------|
----------------------|----------------------|----------------------|
--6-------------------|--7----7----7----8----|----------------------|
--5-------------------|--5----5----5----6----|------------8---------|
-------0----0----0----|----------------------|--8----8---------7----|
      pm.........................................................

                     1st verse  Feel the of taste of hate release its..
------------|------|----------------------|------|----------------------|
------------|------|----------------------|------|----------------------|
------------|------|----------------------|------|----------------------|
------------|------|-----------------9/---|------|----------------------|
-------6----|------|-----------------7/---|------|--5----5----8----5----|
--7---------|------|--0----0----0---------|------|----------------------|
   pm..................................................................


----------------------|----------------------||
----------------------|----------------------||
----------------------|----------------------||
-------7---------7----|--5----7----5---------||
--8---------8---------|-----------------7----||
----------------------|----------------------||
  pm .....................................


RIFF 1

2nd verse
The serpent never stop spitting out its...
----------------------|----------------------|----------------------|
----------------------|----------------------|----------------------|
----------------------|----------------------|----------------------|
----------------------|----------------------|----------------------|
----------------------|----------------------|----------------------|
--0----0----0----0----|--0----0----0----0----|--0----0----0----0----|
pm................................................................


----------------------||
----------------------||
----------------------||
--3----3----3----3----||
--3----3----3----3----||
--1----1----1----1----||

this verse repeat in chorus too.

RIFF 1: Bound I am with bowels torn from my king...
RIFF 2
2ND VERSE: By my hand come the end and the chaos...

solo:

|------|----------------------|----------------------------|
|------|----------------------|----------------------------|
|------|----------------------|-----------------9----11----|
|------|--7----9----7---------|--9a.h.----11---------------|
|------|-----------------7----|----------------------------|
|------|----------------------|----------------------------|



-------------------------|-------------------------|--------------------------|
-------------------------|--13----12---------------|--12----10----12----10----|
--12----11----9----------|--------------12----9----|--------------------------|
-------------------10----|-------------------------|--------------------------|
-------------------------|-------------------------|--------------------------|
-------------------------|-------------------------|--------------------------|



--------------------------|-----------------------|--------------------------|
--------10----------------|--10-------------------|--------------------------|
--12----------12----11----|------------------9----|--11----12----11----12----|
--------------------------|-------------9---------|--------------------------|
--------------------------|--------7--------------|--------------------------|
--------------------------|-----------------------|--------------------------|



--------------------------|------------------------|------------------------|
--10----------------------|------------------------|------------------------|
--------12----11----12----|--9---------12----11----|--12----8----9----------|
--------------------------|-------9----------------|------------------10----|
--------------------------|------------------------|------------------------|
--------------------------|------------------------|------------------------|



-------------------15----||
-------12----15----------||
-------------------------||
--9----------------------||
-------------------------||
-------------------------||

the second guitar in this solo play the same of the VERSE 2.

AFTER THE SOLO:

RIFF 2(X2)
verse 2

so this is ironbound, enjoy! please vote the tab ^^.

  Visit MetalTabs.com for more metal tablature

bottom separator

Contact Us | Privacy Policy | Disclaimer | Legal Notice
Copyright © 2001-2014 MetalTabs.com. All Rights Reserved.