top separator

Home

Forum

What's New

Submit a Tab

FAQ

Links

Contact Us

Link to Us

MuSpy.com

MetalTabs.com logo

Bands

0-9

A

B

C

D

E

F

G

H

I

J

K

L

M

N

O

P

Q

R

S

T

U

V

W

X

Y

Z

Search

What

Where
 

Vio-lence - "Phobophobia" Guitar Tab

Plain Text Version
More Vio-lence Tabs

Hits: 3378
Rated: 5.00 out of 5 (8 votes)
Updated: 2006-08-18 04:37:18

 

By:

Hidrio

sendpm.gif

email.gif

Important note
This tab is available online because we obtained explicit permission from Vio-lence or their label.


#----------------------------------PLEASE NOTE---------------------------------#
#This file is the author's own work and represents their interpretation of the #
#song. You may only use this file for private study, scholarship, or research. #
#Unless specified otherwise, this is NOT an official tab from the band members.#
#------------------------------------------------------------------------------#

  Visit MetalTabs.com for more metal tablature
  
Band:  Vio-lence
Album: Eternal Nightmare
Song:  Phobophobia

Copyright (c)  Mechanic (1988)
Version 1.0 - 8/8/06

Transcribed By: Ryan
Email:          ryanhidrio@hotmail.com


.  - palm mute           /  - slide up to
\  - slide down to       ~  - vibrato
h  - hammer on           b  - Bend
p  - pull off            Suffixes for bend
t  - tap                 f  - full bend    h - half bend
ph - pinched harmonic    q  - quarter bend t - tap bend
*  - see comment         ^  - Hold bend    r release bend
x  - Staccato            ~  - vibrato bend
,  - slight palm mute    () - ghost note, sustained note
"  - tremolo note        tr - Trill


Tuning E A D G B E

Riff 1
|-------------------------------------------------------------------------|
|-------------------------------------------------------------------------|
|-------------------------------------------------------------------------|
|------------7---------------7----7-9------------7------------------------|
|---8-7-10-8---10-8---8-7-10---10-------8-7-10-8---10-8---8-7-10-8-7------|
|-0-----------------0-----------------0-----------------0------------10-8-|  x4
  . . . .  .        . . . .    .      . . . .  .        . . .

Riff 2
||----------------------------------------------------------------|
||----------------------------------------------------------------|
||----------------------------------------------------------------|
||-9/10----7/9-----5/7-------------9/10----7/9-----5/7---------10-|
||-7/8-----5/7-----3/5-------------7/8-----5/7-----3/5-----7---8--|
||-----0-0-----0-0-----0-0-7-8-5-7-----0-0-----0-0-----0-0---0----|
       . .     . .     . . . . . .     . .     . .     . .   .

 |----------------------------------------------------------------|
 |----------------------------------------------------------------|
 |----------------------------------------------------------------|
 |-9/10----7/9-----5/7-------------9/10----7/9-----12------11-----|
 |-7/8-----5/7-----3/5-------------7/8-----5/7-----10------9------|
 |-----0-0-----0-0-----0-0-7-8-5-7-----0-0-----0-0----------------|
       . .     . .     . . . . . .     . .     . .

 |----------------------------------------------------------------|
 |----------------------------------------------------------------|
 |----------------------------------------------------------------|
 |-9/10----7/9-----5/7-------------9/10----7/9-----5/7---------10-|
 |-7/8-----5/7-----3/5-------------7/8-----5/7-----3/5-----7---8--|
 |-----0-0-----0-0-----0-0-7-8-5-7-----0-0-----0-0-----0-0---0----|
       . .     . .     . . . . . .     . .     . .     . .   .

 |--------------------------------------------------------------------------||
 |--------------------------------------------------------------------------||
 |--------------------------------------------------------------------------||
 |-9/10----7/9-----5/7-------------9--10-7--9--5--7-------------------------||
 |-7/8-----5/7-----3/5-------------7--8--5--7--3--5--2--3--2----2----2----2-||
 |-----0-0-----0-0-----0-0-7-8-5-7-------------------0--1--0----0----0----0-||x1
       . .     . .     . . . . . .


Riff 3
||------------------------------------------------------------------|
||------------------------------------------------------------------|
||------------------------------------------------------------------|
||-2-----3---2---------------5-4-0-2-----3---2---------3------------|
||-2-----3---2---------------5-4-0-2-----3---2---------1-------5----|
||---0-0---0---0-0-0-0-0-0-0---------0-0---0---0-0-0-0-----0-0-3----|
     . .   .   . . . . . . .         . .   .   . . . .     . .

 |------------------------------------------------------------------||
 |------------------------------------------------------------------||
 |------------------------------------------------------------------||
 |-2-----3---2---------------5-4-0-2-----3---2---------5-------3----||
 |-2-----3---2---------------5-4-0-2-----3---2---------3-------1----||
 |---0-0---0---0-0-0-0-0-0-0---------0-0---0---0-0-0-0-----0-0------||  x4
     . .   .   . . . . . . .         . .   .   . . . .     . .


Riff 4
||-----------------------------------------------------------------|
||-----------------------------------------------------------------|
||-----------------------------------------------------------------|
||-4/5-----4/5-----4/5-----4/5-----5/6-----6/7-----7/8-----8/9-----|
||-2/3-----2/3-----2/3-----2/3-----3/4-----4/5-----5/6-----6/7-----|
||-----0-0-----0-0-----0-0-----0-0-----0-0-----0-0-----0-0-----0-0-|
       . .     . .     . .     . .     . .     . .     . .     . .

 |-----------------------------------------------------------------|
 |-----------------------------------------------------------------|
 |-----------------------------------------------------------------|
 |-4/5-----4/5-----4/5-----4/5-----5/6-----6/7-----7/8-------------|
 |-2/3-----2/3-----2/3-----2/3-----3/4-----4/5-----5/6-----6h7-6h7-|
 |-----0-0-----0-0-----0-0-----0-0-----0-0-----0-0-----0-0---------|
       . .     . .     . .     . .     . .     . .     . .

 |-----------------------------------------------------------------|
 |-----------------------------------------------------------------|
 |-----------------------------------------------------------------|
 |-4/5-----4/5-----4/5-----4/5-----5/6-----6/7-----7/8-----8/9-----|
 |-2/3-----2/3-----2/3-----2/3-----3/4-----4/5-----5/6-----6/7-----|
 |-----0-0-----0-0-----0-0-----0-0-----0-0-----0-0-----0-0-----0-0-|
       . .     . .     . .     . .     . .     . .     . .     . .

 |---------------------------------------------------------||
 |---------------------------------------------------------||
 |---------------------------------------------------------||
 |-4/5-----4/5-----4/5-----4/5---------------------------7-||
 |-2/3-----2/3-----2/3-----2/3-----5--4-----3--3--2--5-5-5-||
 |-----0-0-----0-0-----0-0-----0-0-3--2-0-0-1--1--0--------||  x1
       . .     . .     . .     . .      . .          . .

Riff 5
||-----------------------------------------------------------------|
||-----------------------------------------------------------------|
||---------------------------------------------------------2-------|
||-2-----3---2---3---2---2---1-----2-----3---2---------2-3---3-2---|
||-2-----3---2---3---2---2---1-----2-----3---2---222-3-----------3-|
||---0-0---0---0---0---0---0---1-2---0-0---0---0-------------------|
     . .   .   .   .   .   .   . .   . .   .   . ...

 |-------------------------------------------------------------------||
 |-------------------------------------------------------------------||
 |-------------------------------------------------------------------||
 |-2-----3---2---3---2---2---1-----2-----3---2---------5-------5/7---||
 |-2-----3---2---3---2---2---1-----2-----3---2---------3-------3/5-2-||
 |---0-0---0---0---0---0---0---1-2---0-0---0---0-000-0-----0-0-----0-||  x1
     . .   .   .   .   .   .   . .   . .   .   . ... .     . .


Riff 3    x2
Riff 4    x2

Riff 6
|---|-----------------------------------------------------------------|
|---|-----------------------------------------------------------------|
|---|-------------------------------4-------------------------------4-|
|-2-|---------------3---------3-2-0-2---------------3---------3-2-0-2-|
|-2-|---------3-2-0-1-------------------------3-2-0-1-----------------|
|-0-|-0-0-0-0---------0-0-0-0---------0-0-0-0---------3-2-0-1---------|  x6
      . . . . . . .   . . . .         . . . . . . .   . . . .


Riff 7
|--------------------------------------|
|--------------------------------------|
|--------------------------------------|
|--------7-9-10-9-7-9----7------7-9-10-|
|-7-9-10--------------10---9-10--------|
|--------------------------------------|  x6
  . . .  . . .  . . . .  . . .  . . .

|-----------------------------------------------------|
|-----------------------------------------------------|
|-----------------------------------------------------|
|-----------------------------7------7-9tr10----------|
|-7-9-10-7-9-10-7-9-10-7-9-10---9-10-----------0\\dive|  7th time
|-----------------------------------------------------|
  . . .  . . .  . . .  . . .  . . .  .

Riff 8
||-----------------------------------------------------------------|
||-----------------------------------------------------------------|
||-----------------------------------------------------------------|
||-----------------------------------------------------------------|
||-------0-2-3-2-0-2---0-----0-2-3-------0-2-3-2-0-2-3-0-2---0-----|
||-0-2-3-------------3---2-3-------0-2-3-------------------3---1~--|
   . . . . . . . .   .   . .       . . . . . . . .     . . . .
 |-----------------------------------------------------------------||
 |-----------------------------------------------------------------||
 |-----------------------------------------------------------------||
 |-------------------------------------------------0---------------||
 |-------0-2-3-2-0-2---0-----0-2-3-------0-2-3-2-0---2-3-0-2---0---||
 |-0-2-3-------------3---2-3-------0-2-3---------------------3-----||  x1
   . . . . . . . . . . . . .       . . . . . . . . . . . . . . .

Riff 9 (Under Solo)
||-----------------------------------------------------------------|
||-----------------------------------------------------------------|
||-----------------------------------------------------------------|
||-----------------------------------------------------------------|
||-2-------------------------5---5-2---------------2-3-0-2---0-----|
||-0-------------------------3---3-0-----------------------3---2-3-|
                                                   . . . . . . . .

 |-----------------------------------------------------------------||
 |-----------------------------------------------------------------||
 |-----------------------------------------------------------------||
 |-------------------------------------------------0---------------||
 |-2-------------------------5---5-2-------------3---2-3-0-2---0---||
 |-0-------------------------3---3-0-------------------------3-----||  x3
                                                 .   . . . . .

Riff 10
||-----------------------------------------------------------------|
||-----------------------------------------------------------------|
||-----------------------------------------------------------------|
||-----------------------------------------------------------------|
||-2-------------------------5---5-2---------------2-3-0-2---0-----|
||-0-0-0-0-0-0-0-0-0-0-0-0-0-3---3-0-0-0-0-0-0-0-0---------3---2-3-|
     . . . . . . . . . . . .         . . . . . . . . . . . . . . .

 |-----------------------------------------------------------------||
 |-----------------------------------------------------------------||
 |-----------------------------------------------------------------||
 |-------------------------------------------------0---------------||
 |-2-------------------------5---5-2-------------3---2-3-0-2---0---||
 |-0-0-0-0-0-0-0-0-0-0-0-0-0-3---3-0-0-0-0-0-0-0-------------3-----||  x2
     . . . . . . . . . . . .         . . . . . . . . . . . . . .


 |-----------------------------------------------------------------|
 |-----------------------------------------------------------------|
 |-----------------------------------------------------------------|
 |---0---------------0---------------------------------------------|
 |-3---2-3-0-2---0-3---2-3-0-2---0-2-------------------------------|
 |-------------3---------------3-----000000000000000000000000.....-|  x1
   . . . . . . . . . . . . . . .     .............................

Riff 11
||-------------------------------------------------------------------|
||-------------------------------------------------------------------|
||-------------------------------------------------------------------|
||-------------------------------------------------------------------|
||-10\9---9\8---8\7-----------------10\9---9\8---8\7-----------------|
||-8\\7-0-7\6-0-6\5-0-0-0-0-000-0-0-8\\7-0-7\6-0-6\5-0-0-0-0-000-0-0-|
        .     .     . . . . ... . .      .     .     . . . . ... . .

 |------------------------------------------------------------------||
 |------------------------------------------------------------------||
 |------------------------------------------------------------------||
 |------------------------------------------------------------------||
 |-10\9---9\8---8\7-----------------5\4---4\3---3-------------------||
 |-8\\7-0-7\6-0-6\5-0-0-0-0-000-0-0-3\2-0-2\1-0-1---0-0-0-0-000-0-0-||  x2
        .     .     . . . . ... . .     .     .     . . . . ... . .

|---------------------------------|             |-----------------|
|---------------------------------|             |-----------------|
|---------------------------------|             |-----------------|
|---------------------------------|             |-----------------|
|-5\4---4\3---3---2-------------3-|             |-2-------------3-|
|-3\2-0-2\1-0-1---0-------------1-|  x1         |-0-------------1-| x4
      .     .

Riff 12a
|-----------------------------------------------------------------|
|-----------------------------------------------------------------|
|-----------------------------------------------------------------|
|-----------------------------------------------------------------|
|---8\7---7/8---8\7---7/8-7/8-7/8---8\7---7/8---8\7---7---5---3---|
|-0-6\5-0-5/6-0-6\5-0-5/6-5/6-5/6-0-6\5-0-5/6-0-6\5-0-5-0-3-0-1---|  x3
  .     .     .     .             .     .     .     .   .   .

Riff 12b
|---------------------------------------------------------------------|
|---------------------------------------------------------------------|
|---------------------------------------------------------------------|
|---10\9---9/10--10\9---9/10-9/10-9/10--10\9---9/10--10\9---9---7---5-|
|---8\\7---7/8---8\\7---7/8--7/8--7/8---8\\7---7/8---8\\7---7---5---3-|
|-0------0-----0------0---------------0------0-----0------0---0---0---|  x2
  .      .     .      .               .      .     .      .   .   .

Riff 12c
|------------------------------------------------------------------------|
|------------------------------------------------------------------------|
|------------------------------------------------------------------------|
|---10p9---9h10---10p9---9h10-9h10-9h10---10p9---9h10---10p9---9---7---5-|
|------------------------------------------------------------------------|
|-0------0------0------0----------------0------0------0------0---0---0---|  x1
  .      .      .      .                .      .      .      .   .   .


Riff 12c-2 (Guitar 2 in brackets)
|----------------------------------------------------------------------|
|--------------------------------------------------------------------ph|
|--(10p9)-(9h10)-(10p9)-(9h10-9h10-9h10)-(10p9)-(9\7)-(7\5)-(5-4-5-4-5)|
|---10p9---9h10---10p9---9h10-9h10-9h10---10p9---9\7---7\5---5-4-5-4-5-|
|----------------------------------------------------------------------|
|-0------0------0------0----------------0------0-----0-----0-----------|  x1
  .      .      .      .                .      .     .     .


Riff 12d  (Guitar 2 in brackets)
|-------------------------------------------------------------------|
|-------------------------------------------------------------------|
|-------------------------------------------------------------------|
|--------------(8p7)-(7h8-7h8-7h8)-(8p7)-(7h8)-(8p7)-(7---5---2tr3)-|
|---8p7---7h8---8p7---7h8-7h8-7h8---8p7---7h8---8p7---7---5---2tr3--|
|-0-----0-----0-----0-------------0-----0-----0-----0---0---0-------|  x1
  .     .     .     .             .     .     .     .   .   .

Riff 12e
|-----------------------------------------------------------------|
|-----------------------------------------------------------------|
|-----------------------------------------------------------------|
|-----------------------------------------------------------------|
|---8\7---7/8---8\7---7/8-7/8-7/8---8\7---7/5---5\3---3---3---3---|
|-0-6\5-0-5/6-0-6\5-0-5/6-5/6-5/6-0-6\5-0-5/3-0-3\1-0-1-0-1-0-1---|  x1
  .     .     .     .             .     .     .     .   .   .


|-----------------|
|-----------------|
|-----------------|
|-----------------|
|-2-------------3-|
|-0-------------1-| x4


Riff 3     x1
Riff 5     x1
Riff 3     x2
Riff 4     x2


|-----|
|-----|
|-----|
|-----|
|-2---|
|-0---| End with this



END

  Visit MetalTabs.com for more metal tablature

bottom separator

Contact Us | Privacy Policy | Disclaimer | Legal Notice
Copyright © 2001-2014 MetalTabs.com. All Rights Reserved.