top separator

Home

Forum

What's New

Submit a Tab

FAQ

Links

Contact Us

Link to Us

MuSpy.com

MetalTabs.com logo

Bands

0-9

A

B

C

D

E

F

G

H

I

J

K

L

M

N

O

P

Q

R

S

T

U

V

W

X

Y

Z

Search

What

Where
 

Horna - "Verikammari" Bass Tab

Plain Text Version
More Horna Tabs

Hits: 2011
Rated: 1.00 out of 5 (1 vote)
Updated: 2006-08-18 04:26:31

 

By:

sendpm.gif

email.gif

Important note
This tab is available online because we obtained explicit permission from Horna or their label.


#----------------------------------PLEASE NOTE---------------------------------#
#This file is the author's own work and represents their interpretation of the #
#song. You may only use this file for private study, scholarship, or research. #
#Unless specified otherwise, this is NOT an official tab from the band members.#
#------------------------------------------------------------------------------#

  Visit MetalTabs.com for more metal tablature
  
Band:  Horna
Album: Perimä vihassa ja verikostossa
Song:  Verikammari

Copyright (c)  Oskorei productions 1999
Version 1.0 - 7 Aug 2006

Transcribed By: nihq
Email:          wont@start.no


Tuning EADG

The triplet feel might hinder reading, so I use "*"
to help picture the spots where drum hits are.


Introduction - 6/8 improv around the note F#, I play it like this:

|-------------|-------------|
|-------------|-------------|
|-------4-----|---5-4-2-----|
|-2-2-5---5-4-|-2-------5-4-|


Intro addition

|-------------------|
|-------------------|
|-5-55544-44444-----|
|---------------5-4-|


Verse riff 1

|-------------------------------------------------|
|-------------------------------------------------|
|-------------------------6-6-6-5-5-5-5-5-5-5-5-5-|
|-2-2-2-2-2-2-2-2-2-2-2-2-------------------------|
  *     *     *     *     *     *     *     *

Verse riff 2

|-------------------------------------------------
|-------------------------------------------------
|-------------------------------------------------
|-2---2-2---2-2---2-2---2-5---5-5---5-5---5-5---5-
  *     *     *     *     *     *     *     *
-------------------------------------------------|
-------------------------------------------------|
-4---4-4---4-4---4-4---4-------------------------|
-------------------------7---7-7---7-5-7-5-4-5-4-|
 *     *     *     *     *     *     *     *

Verse riff 3


|-------------------------------------------------
|-------------------------------------------------
|-------------------------------------------------
|-2---2-2-2-2-2---2-2-2-2-2---2-2-2-2-2-3-2-3-2-2-
  *     *     *     *     *     *     *     *


-------------------------------------------------|
-------------------------------------------------|
-------------------------------------2-----------|
-3---3-3-3-3-3---3-3-3-3-3---3-3-3-3-------3-----|
 *     *     *     *     *     *     *     *



Interlude riff

|-------------------------------------------------|
|-------------------------------------------------|
|-------------------------------------------------|
|-3-3-3-3-3-3-6-3-3-6-3-6-2-2-2-2-2-5-2-2-5-2-2-2-|
  *     *     *     *     *     *     *     *

Then head back to verse riff 1...



Back from there, a break and a new blastbeat section:

|-------------------------------------------------|
|-------------------------------------------------|
|-------------------------------------------------|
|-2-2-2-2-2-2-2-2-2-2-2-2-3-3-3-2-2-2-2-2-2-2-2-2-|
  *     *     *     *     *     *     *     *


Variation of the former during the same blastbeat...


|---------------------------------------------------|
|---------------------------------------------------|
|-------------------------5-----56-----65-----5-----|
|-2-----23-----32---2-------------------------------|

Drum beat changes to a slow one. The previous riff
is then repeated according to the rhythm of the drums.

After that, return to the introduction riff and you're at the end.



END

  Visit MetalTabs.com for more metal tablature

bottom separator

Contact Us | Privacy Policy | Disclaimer | Legal Notice
Copyright © 2001-2014 MetalTabs.com. All Rights Reserved.