top separator

Home

Forum

What's New

Submit a Tab

FAQ

Links

Contact Us

Link to Us

MuSpy.com

MetalTabs.com logo

Bands

0-9

A

B

C

D

E

F

G

H

I

J

K

L

M

N

O

P

Q

R

S

T

U

V

W

X

Y

Z

Search

What

Where
 

Summers End - "Headwound - (with Michael Graves)" Guitar Tab

Plain Text Version
More Summers End Tabs

Hits: 4617
Updated: 2006-08-18 04:04:15

 

By:

sendpm.gif

email.gif

Important note
This tab is available online because we obtained explicit permission from Summers End or their label.


#----------------------------------PLEASE NOTE---------------------------------#
#This file is the author's own work and represents their interpretation of the #
#song. You may only use this file for private study, scholarship, or research. #
#Unless specified otherwise, this is NOT an official tab from the band members.#
#------------------------------------------------------------------------------#

  Visit MetalTabs.com for more metal tablature
  
Band:  summers end
Album: summers end
Song:  Headwound(with Michael Graves)

Copyright (c)  (? RECORD LABEL?) (2005)
Version 1.0  -  7-30-06

Transcribed By: Slinky
Email: n0toriousharry@hotmail.com


.  - palm mute           /  - slide up to
\  - slide down to       ~  - vibrato
h  - hammer on           b  - Bend
p  - pull off            Suffixes for bend
t  - tap                 f  - full bend    h - half bend
ph - pinched harmonic    q  - quarter bend t - tap bend
*  - see comment         ^  - Hold bend    r release bend
x  - Stuccatto           ~  - vibrato bend
,  - slight palm mute    () - ghost note, sustained note
"  - tremolo note        <> - Trill

Tuning D A D G B E

 Riff 1: x4
|----------------------------------------------------|
|----------------------------------------------------|
|----------------------------------------------------|
|----7-7h8p7------5-5h7p5------7-7h8p7------7-7-5----|
|-0----------8-7----------7-5----------8-8--------0--|
|-0------------7------------5------------8--------0--|

 Riff 2A: x1
|-------------------------------------------------------------------|
|-------------------------------------------------------------------|
|-------------------------------------------------------------------|
|----------------------------------------------------------7-5-0----|
|-0--0-0-0-0--12-10--10-10-10-10--10-7--7-7-7-7--7-8--8-8--------0--|
|-0--0-0-0-0--12-10--10-10-10-10--10-7--7-7-7-7--7-8--8-8--------0--|
     . . . .          .  .  .  .        . . . .       . .

 Riff 2B: x4
|-----------------------------------------------------------------|
|-----------------------------------------------------------------|
|-----------------------------------------------------------------|
|-----------------------------------------------------------------|
|-0--0-0-0-0--12-10--10-10-10-10--10-7--7-7-7-7--7-8--8-8-8-8--7--|
|-0--0-0-0-0--12-10--10-10-10-10--10-7--7-7-7-7--7-8--8-8-8-8--7--|
     . . . .          .  .  .  .        . . . .       . . . .

 Riff 3: x2
|------------------------------------------------------------------------------|
|------------------------------------------------------------------------------|
|------------------------------------------------------------------------------|
|5/7--7-7-7-7-5-5--5/7--7-7-7-7-5-5--5/7--7-7-7-7-5-5--5/10--10-10-10-10-9-9-9-|
|------------------------------------------------------------------------------|
|------------------------------------------------------------------------------|

 Riff 4:  x2  *( play whats in  []  2nd time only )
|--------------------------------------------------------------------|
|--------------------------------------------------------------------|
|-7-7-10-7-12-7-7--10-10-10-14-10-12-10-10h12p10-9--7-7-10-7-12-7-7--|
|--------------------------------------------------------------------|
|--------------------------------------------------------------------|
|--------------------------------------------------------------------|

|---------------------------------------------------|
|---------------------------------------------------|
|-13131313-11111111-10101010-10h11p10-[6-6-6ph~b]*--|
|---------------------------------------------------|
|---------------------------------------------------|
|---------------------------------------------------|

Riff 1   x2
Riff 2A  x1
Riff 2B  x4
Riff 3   x2
Riff 4*  x2

Riff 5: x4        *( play whats in  []  4th time only )
|------------------------------------------------------------------------|
|------------------------------------------------------------------------|
|------------------------------------------------------------------------|
|------------------------7-5-----------------------888-777-555-----[0~]*-|
|----------------------8---------------------------------------777-[0~]--|
|-0--0-0-0--000-0-0-0---------0--0-0-0--000-0-0-0------------------[0~]--|

( rainfall, the acustic/clean guitars come in playing this riff)

* Riff 6A: x3 * ( no distortion ) * * * * * * * * * * * * * * * * * * * * *
* |----------------------------------------------------------------------|*
* |----------------------------------------------------------------------|*
* |----------------------------------------------------------------------|*
* |-----7---8---7-----5---7---5h7p5-----7---8---7h8p7-----7---8---7h8p7--|*
* |-0-0---0---0---5-5---5---5-------7-7---7---7-------8-8---8---8--------|*
* |-0-------------5-----------------7-----------------8------------------|*
* * * * * * * * * * * * * * * * * * * * * * * * * * * * * * * * * * * * * *

*Riff 6B: x1 * * ( no distortion )* * * * * * * * * *
*|--------------------------------------------------*------------------|
*|--------------------------------------------------*------------------|
*|--------------------------------------------------*------------------|
*|-----7---8---7-----5---7---5h7p5-----7---8---7h8p7*------------------|
*|-0-0---0---0---5-5---5---5-------7-7---7---7------*-8-8-8-8-8-8-8-8--|
*|-0-------------5-----------------7----------------*-8-8-8-8-8-8-8-8--|
* * * * * * * * * * * * * * * * * * * * * * * * * * * . . . . , , , ,

Riff 6A x4 ( with distortion )

Riff 7: x2
|-------------------------------------------------------------------|
|-------------------------------------------------------------------|
|-------------------------------------------------------------------|
|-0-7-5-8-0-7-5-8-0-7-5-8-0-8-7-5-0-7-5-8-0-7-5-8-0-7-5-8-0-8-7-5---|
|-------------------------------------------------------------------|
|-------------------------------------------------------------------|

Riff 8: x1  (listen to song for timeing
|-----------------------------------------------------------------|
|-----------------------------------------------------------------|
|-----------------------------------------------------------------|
|-3--3/5-5/7-8-7-5-7-5-8-7-5-3-3h5p3-2-2h3p2-----0-0-0-0-2-2-2-2--|
|---------------------------------------------3-0-----------------|
|-----------------------------------------------------------------|

|-------------------------------------------------------------------|
|-------------------------------------------------------------------|
|-------------------------------------------------------------------|
|-0-3-5-7-8-7h8p7-5-7-5h7p5-3-5-3-7-5-0--8--7--5--8-7-5-7-5h7p5-----|
|-------------------------------------------------------------------|
|-------------------------------------------------------------------|

|-------------------------------------------------------------------|
|-------------------------------------------------------------------|
|-------------------------------------------------------------------|
|-3-5-3--3h5p3-2-2h3p2-------0-0-0-0--2-2---------------------------|
|----------------------3--0---------------3-3-3---------------------|
|-----------------------------------------3-3-3---------------------|

Riff 2B   x4
Riff 3    x2
Riff 4*   x2
Riff 5    x3

Riff 9: x1
|------------------------------------------------------------------------------|
|------------------------------------------------------------------------------|
|------------------------------------------------------------------------------|
|----------------------7-5-----------------------888-777-555-----777-555-----1-|
|--------------------8---------------------------------------777---------777-1-|
|0--0-0-0--000-0-0-0---------0--0-0-0--000-0-0-0-------------------------------|

END

Alrighty then...thats it...
if you have any questions, corrections, etc. email me...i don't check my email
that much so i might not respond right away...but i will get back to you

oh yeah there is alot of harmonizing with guitars in this song so some of it
might not sound right unless you're playing it with another guitar that
knows the other guitar part or playing it with the song itself...

anyways peace out...and keep shreding \m/ o_0\m/

-Slinky

  Visit MetalTabs.com for more metal tablature

bottom separator

Contact Us | Privacy Policy | Disclaimer | Legal Notice
Copyright © 2001-2014 MetalTabs.com. All Rights Reserved.