top separator

Home

Forum

What's New

Submit a Tab

FAQ

Links

Contact Us

Link to Us

MetalTabs.com logo

Bands

0-9

A

B

C

D

E

F

G

H

I

J

K

L

M

N

O

P

Q

R

S

T

U

V

W

X

Y

Z

Search

What

Where
 

Von - "Release" Bass Tab

Plain Text Version
More Von Tabs

Hits: 1413
Updated: 2006-08-18 04:03:40

 

By:

setsuna956

sendpm.gif

email.gif

Important note
We did our best to reach Von and ask for their permission to publish this tab. Unfortunately they did not respond to our requests or we could not find a way to contact them. This tab is available online until Von tells us to take it down.


#----------------------------------PLEASE NOTE---------------------------------#
#This file is the author's own work and represents their interpretation of the #
#song. You may only use this file for private study, scholarship, or research. #
#Unless specified otherwise, this is NOT an official tab from the band members.#
#------------------------------------------------------------------------------#

  Visit MetalTabs.com for more metal tablature
  
Band:  Von
Album: Satanic Blood Angel
Song:  Release

Copyright (c)  Nuclear War Now Productions 2003
Version 1.0 - 07/29/2006

Transcribed By: setsuna956
Email:          setsuna956@yahoo.com


.  - palm mute           /  - slide up to
\  - slide down to       ~  - vibrato
h  - hammer on           b  - Bend
p  - pull off            Suffixes for bend
t  - tap                 f  - full bend    h - half bend
ph - pinched harmonic    q  - quarter bend t - tap bend
*  - see comment         ^  - Hold bend    r release bend
x  - Stuccatto           ~  - vibrato bend
,  - slight palm mute    () - ghost note, sustained note
"  - tremolo note        <> - Trill

Tuning E A D G

Part 1
|-----------------------------------------------------------------|-
|-----------------------------------------------------------------|-
|-----------------------------------------------------------------|-
|-7-7-6-6-7-7-6-6-7-7-6-6-7-7-6-6-7-7-6-6-7-7-6-6-7-7-6-6-7-7-6-6-|-

-|-----------------------------------------------------------------|
-|-----------------------------------------------------------------|
-|-5-5-4-4-5-5-4-4-5-5-4-4-5-5-4-4-5-5-4-4-5-5-4-4-5-5-4-4-5-5-4-4-|
-|-----------------------------------------------------------------|x4

Part 2, 0:32...
|---------------------------------|
|-3-3-2-2-3-3-2-2-----------------|
|-----------------5-5-4-4-5-5-4-4-|
|---------------------------------|x4

[Part 1]x2
[Part 2]x12

Break/End
|---|
|---|
|---|
|-0-|

END

  Visit MetalTabs.com for more metal tablature

bottom separator

Contact Us | Privacy Policy | Disclaimer | Legal Notice
Copyright © 2001-2014 MetalTabs.com. All Rights Reserved.