top separator

Home

Forum

What's New

Submit a Tab

FAQ

Links

Contact Us

Link to Us

MuSpy.com

MetalTabs.com logo

Bands

0-9

A

B

C

D

E

F

G

H

I

J

K

L

M

N

O

P

Q

R

S

T

U

V

W

X

Y

Z

Search

What

Where
 

Graveworm - "Dreaming Into Reality" Guitar Tab

Plain Text Version
More Graveworm Tabs

Hits: 3696
Rated: 4.56 out of 5 (9 votes)
Updated: 2006-08-18 04:02:11

 

By:

USS

sendpm.gif

email.gif

Important note
This tab is available online because we obtained explicit permission from Graveworm or their label.


#----------------------------------PLEASE NOTE---------------------------------#
#This file is the author's own work and represents their interpretation of the #
#song. You may only use this file for private study, scholarship, or research. #
#Unless specified otherwise, this is NOT an official tab from the band members.#
#------------------------------------------------------------------------------#

  Visit MetalTabs.com for more metal tablature
  
Band:  Graveworm
Album: Engraved in Black
Song:  Dreaming into Reality

Copyright (c)  Nuclear Blast Records, 2003
Version 1.0 - recorded 26-03-2003, released 23-06-2003

Transcribed By: Chayns of Demolishment
Email:          infernal_purge@hotmail.com

Note: this is a 7-string guitar tab,
so it is tune down 2 whole steps for 6-strings
             E |
             B |      B |
             G |      F#|  (for 6-strings: read one fret higher or tune as G)
             D |  OR  D |
             A |      A |
             E |      E |
             B |      B |

Note:
=  let ring
\  slide down
X  muted note
.  (on itself) palm mute
.  (behind a number) staccato note

Riff 1 (twice):
|-------------------|-------------------|
|-------------------|-------------------|
|-------------------|-------------------|
|-------------------|-------------------|
|-2=--2=---5=----4=-|-2=--2=---5=----4b-|
|-2=--2=---5=----4=-|-2=--2=---5=----4=-|
|-0=--0=---3=----2=-|-0=--0=---3=----2=-|

Fill 1:
|-------------------|-------------------|
|-------------------|-------------------|
|-------------------|-------------------|
|-------------------|-------------------|
|-2=====------------=-======------------|
|-2=====------------=-======------------|
|-0=====------------=-======------------|

Riff 2 (twice):
|------------------------------|
|------------------------------|
|------------------------------|
|------------------------------|
|------------------------------|
|-5.-555-5.-555-5.-555--555555-|
|-3.-333-3.-333-3.-333--333333-|

Fill 2:
|-------------------|
|-------------------|
|-------------------|
|-2===------4=--5=--|
|-2===------4=--5=--|
|-0===------2=--3=--|
|-------------------|

Riff 3:
|-------------------|-------------------|
|-------------------|-------------------|
|-------------------|-------------------|
|-44444444-44444444-|----------5555-----|
|-------------------|-77777777-----7777-|
|-------------------|-------------------|
|-------------------|-------------------|

|-------------------|-------------------|
|-------------------|-------------------|
|-------------------|-------------------|
|-44444444-44444444-|----------5555-----|
|-------------------|-77777777-----7777-|
|-------------------|-------------------|
|-------------------|-------------------|

|-------------------|-------------------|
|-------------------|-------------------|
|-------------------|-------------------|
|-55555555-55555555-|----------55555555-|
|-------------------|-77777777----------|
|-------------------|-------------------|
|-------------------|-------------------|

|-------------------|-------------------|
|-------------------|-------------------|
|-------------------|-------------------|
|-44444444-44444444-|----------5555-----|
|-------------------|-77777777-----7777-|
|-------------------|-------------------|
|-------------------|-------------------|

|-------------------|-------------------|
|-------------------|-------------------|
|-------------------|-------------------|
|-44444444-44444444-|----------5555-----|
|-------------------|-77777777-----7777-|
|-------------------|-------------------|
|-------------------|-------------------|

|-------------------|-------------------|
|-------------------|-------------------|
|-------------------|-55555555-66667777-|
|-55555555-55557777-|-------------------|
|-------------------|-------------------|
|-------------------|-------------------|
|-------------------|-------------------|

|-------------------|-------------------|
|-------------------|-------------------|
|-66666666-66666666-|-66666666-66666666-|
|-------------------|-------------------|
|-------------------|-------------------|
|-------------------|-------------------|
|-------------------|-------------------|

Riff 4 (four times):
|-------------------|-------------------|
|-------------------|-------------------|
|-------------------|-------------------|
|-------------------|-------------------|
|-2=======---2-2=---|-2=======---2-2=---|
|-2=======---2-2=---|-2=======---2-2=---|
|-0=======---0-0=---|-0=======---0-0=---|

|-------------------|-------------------|
|-------------------|-------------------|
|-------------------|-------------------|
|-2=======---2-2=---|-4=======---4-4=---|
|-2=======---2-2=---|-4=======---4-4=---|
|-0=======---0-0=---|-2=======---2-2=---|
|-------------------|-------------------|

Riff 1 twice

Riff 5 (Acoustic guitar)(four times):
|-----------------|-----------------|
|-----------------|-----------------|
|-----------------|----------4=-----|
|-4h5=--4h5p4=--4-h5p4=--4=----4=---| Three times
|-----2=------2=--|----2=--2=----5=-|
|-----------------|-----------------|
|-----------------|-----------------|

|-----------------|-----------------|
|-----------------|-----------------|
|-----4=----4=----|-----4=----4=----|
|-------4=----4=--|-------4=----4=--|
|-2=------2=----2-=---------2=----2=|
|---2=------------|-3p0=------------|
|-----------------|-----------------|

First time over Fill 1
Second time with drums
Third and fourth time over accompanying guitar:
|-----------------|-----------------|
|-----------------|-----------------|
|-----------------|-----------------|
|-----------------|-----------------|
|-----------------|-----------------|
|-2-2-.-2-.-2-.-2-|-2.--------------|
|-0-0-.-0-.-0-.-0-|-0.--------------|

|-----------------|-----------------|
|-----------------|-----------------|
|-----------------|-----------------|
|-----------------|-----------------|
|-2-2-.-2-.-2-.-2-|-2.--------------|
|-0-0-.-0-.-0-.-0-|-0.--------------|
|-----------------|-----------------|

|-----------------|-----------------|
|-----------------|-----------------|
|-----------------|-----------------|
|-----------------|-----------------|
|-----------------|-----------------|
|-2-2-.-2-.-2-.-2-|-2.--------------|
|-0-0-.-0-.-0-.-0-|-0.--------------|

|-----------------|-----------------|
|-----------------|-----------------|
|-----------------|-----------------|
|-----------------|-----------------|
|-----------------|-----------------|
|-4=====----------=-======----------|
|-2=====----------=-======----------|

Riff 3 once

Fill 3
|------------------|------------------|
|------------------|------------------|
|------------------|------------------|
|----------4=-2=-4-|----------4=-2=-4-|
|-2===-------------|-2===-------------|
|-2===-------------|-2===-------------|
|-0===-------------|-0===-------------|

First Guitar
|------------------|------------------|
|------------------|------------------|
|------------------|------------------|
|----------5=-4=-5-|----------5=-4=-2-|
|-55555555---------|-55555555---------|
|-55555555---------|-55555555---------|
|-33333333---------|-33333333---------|

Second Guitar
|------------------|------------------|
|------------------|------------------|
|------------------|-2=---------------|
|----------5=-4=-5-|----5=-4--5=-4=-2-|
|-55555555---------|------------------|
|-55555555---------|------------------|
|-33333333---------|------------------|

Riff 6
First Guitar
|------------------|------------------|
|------------------|------------------|
|------------------|------------------|
|----------4=-2=-4-|----------4=-2=-4-|
|-22222222---------|-22222222---------|
|-22222222---------|-22222222---------|
|-00000000---------|-00000000---------|

|------------------|------------------|
|------------------|------------------|
|------------------|------------------|
|----------5=-4=-5-|----------5=-4=-2-|
|-55555555---------|-55555555---------|
|-55555555---------|-55555555---------|
|-33333333---------|-33333333---------|

Second Guitar
|------------------|------------------|
|------------------|------------------|
|------------------|------------------|
|----------4=-2=-4-|----------4=-2=-4-|
|-22222222---------|-22222222---------|
|-22222222---------|-22222222---------|
|-00000000---------|-00000000---------|

|------------------|------------------|
|------------------|------------------|
|------------------|-2=---------------|
|----------5=-4=-5-|----5=-4--5=-4=-2-|
|-55555555---------|------------------|
|-55555555---------|------------------|
|-33333333---------|------------------|

Fill 4
|--------------|--------------|---------------|--------------|
|--------------|--------------|---------------|--------------|
|--------------|--------------|---------------|--------------|
|-4=====-------=-===----4-----|---------------|--------------|
|--------------|----------7-5-|-2==--/7-7=----=-======-------|
|--------------|--------------|---------------|--------------|
|--------------|--------------|---------------|--------------|

|--------------|--------------|---------------|--------------|
|--------------|--------------|---------------|--------------|
|--------------|--------------|---------------|--------------|
|-4=====-------=-===----4-7-7-|-6=====--------=-======-------|
|--------------|--------------|---------------|--------------|
|--------------|--------------|---------------|--------------|
|--------------|--------------|---------------|--------------|

Riff 1
Keyboard fill
Riff 4
Fill 1 and Riff 5

Any corrections are welcome!!

  Visit MetalTabs.com for more metal tablature

bottom separator

Contact Us | Privacy Policy | Disclaimer | Legal Notice
Copyright © 2001-2014 MetalTabs.com. All Rights Reserved.