top separator

Home

Forum

What's New

Submit a Tab

FAQ

Links

Contact Us

Link to Us

MuSpy.com

MetalTabs.com logo

Bands

0-9

A

B

C

D

E

F

G

H

I

J

K

L

M

N

O

P

Q

R

S

T

U

V

W

X

Y

Z

Search

What

Where
 

Tankard - "New Liver Please!" Guitar Tab

Plain Text Version
More Tankard Tabs

Hits: 1994
Rated: 4.00 out of 5 (2 votes)
Updated: 2006-08-18 03:46:12

 

By:

Daniil

sendpm.gif

email.gif

Important note
This tab is available online because we obtained explicit permission from Tankard or their label.


#----------------------------------PLEASE NOTE---------------------------------#
#This file is the author's own work and represents their interpretation of the #
#song. You may only use this file for private study, scholarship, or research. #
#Unless specified otherwise, this is NOT an official tab from the band members.#
#------------------------------------------------------------------------------#

  Visit MetalTabs.com for more metal tablature
  
TANKARD-New Liver, Please!
B-Day-2002
Copyright AFM Records
Transcribed by Daniil Laletin
e-mail: dlaletin@mail.ru
version 1.0 March 2006

All corrections are welcome.

 " - tremolo
 / - slide down
 \ - slide up
 . - palm mute
 ~ - long sound
 x - rest
 p - pull off
 h - hammer on
 tr - trill
 () - ghost note, sustained note
 * - artificial harmonics
 b - bend

 Tuning from low to high: D# G# C# F# A# D#
===========================================

 Riff 1a
|-------------------------------------------|
|-------------------------------------------|
|-------------------------------------------|
|-------------------------------5-4-3-------|both
|-2---6-5-4-2---6-5-4-2---6-5-4-3-2-1-5-4-3-|
|-0---4-3-2-0---4-3-2-0---4-3-2-------3-2-1-|


 Riff 1b
|----------------------------------|
|----------------------------------|
|----------------------------------|
|----------------------------------|both
|-2------6-5-4-2------6-5-4-2------|
|-0-0000-4-3-2-0-0000-4-3-2-0-0000-|
    ....         ....         ....
|-------------------|
|-------------------|
|-------------------|
|-------5-4-3-------|both
|-6-5-4-3-2-1-5-4-3-|
|-4-3-2-------3-2-1-|


 Riff 2a
|-------------------------------|
|-------------------------------|
|-------------------------------|
|-------------------------------|both
|-------------------------------|
|-00000-4-3-2-00000-4-3-2-00000-|
  ..... . . . ..... . . . .....

|-----------------------|
|-----------------------|
|-----------------------|
|-----------------------|both
|-------3-2-1-2---------|
|-4-3-2-.-.-.-.-3-2-1-2-|
  . . .         . . . .


 Riff 2b
|-------------------------------|
|-------------------------------|
|-------------------------------|
|-------------------------------|gtr 1
|-------------------------------|
|-00000-4-3-2-00000-4-3-2-00000-|
| ..... . . . ..... . . . .....
|-------------------------------|
|-------------------------------|
|-------------------------------|
|-------------------------------|gtr 2
|-------3-2-1-------3-2-1-------|
|-00000-.-.-.-00000-.-.-.-00000-|
  .....       .....       .....

|-----------------------|
|-----------------------|
|-----------------------|
|-----------------------|gtr 1
|-------3-2-1-2---------|
|-4-3-2-.-.-.-.-3-2-1-2-|
| . . .         . . . .
|-----------------------|
|-----------------------|
|-----------------------|
|-------2-1-0-1---------|gtr 2
|-3-2-1-.-.-.-.-2-1-0-1-|
|-.-.-.---------.-.-.-.-|


 Fill 1
|------------------------|
|------------------------|
|------------------------|
|-------------3"---------|both
|-1111111111111"---------|
|-............-----------|



 Riif 3a
|----------------------------------|
|----------------------------------|
|----------------------------------|
|----------------------------------|gtr 1
|------------------------------tr--|
|-7-0-0-8-0-0-6-0-7-0-0-8-0-0-7878-|
|   . .   . .   .   . .   . .
|----------------------------------|
|----------------------------------|
|----------------------------------|
|----------------------------------|gtr 2
|------------------------------tr--|
|-7-0-0-8-0-0-6-0-7-0-0-8-0-0-7878-|
|   . .   . .   .   . .   . .

|-----------------------------|
|-----------------------------|
|-----------------------------|
|-----------------------------|gtr 1
|-----------------------------|
|-7-0-0-8-0-0-6-0-4-3-4-5-4-3-|
|   . .   . .   . . . . . . .
|-----------------------------|
|-----------------------------|
|-----------------------------|
|-----------------------------|gtr 2
|-----------------------------|
|-7-0-0-8-0-0-6-0-4-3-4-5-4-3-|
|   . .   . .   . . . . . . .




 Riif 3b
|----------------------------------|
|----------------------------------|
|----------------------------------|
|----------------------------------|gtr 1
|------------------------------tr--|
|-7-0-0-8-0-0-6-0-7-0-0-8-0-0-7878-|
|   . .   . .   .   . .   . .
|----------------------------------|
|----------------------------------|
|----------------------------------|
|----------------------------------|gtr 2
|----------------------------------|
|-0-0-0-0-0-0-0-0-0-0-0-0-0-0-0-0--|
  . . . . . . . . . . . . . . . .

|-----------------------------|
|-----------------------------|
|-----------------------------|
|-----------------------------|gtr 1
|-----------------------------|
|-7-0-0-8-0-0-6-0-4-3-4-5-4-3-|
|   . .   . .   . . . . . . .
|-----------------------------|
|-----------------------------|
|-----------------------------|
|-----------------------------|gtr 2
|-----------------------------|
|-0-0-0-0-0-0-0-0-4-3-4-5-4-3-|
  . . . . . . . . . . . . . .

  Visit MetalTabs.com for more metal tablature

bottom separator

Contact Us | Privacy Policy | Disclaimer | Legal Notice
Copyright © 2001-2014 MetalTabs.com. All Rights Reserved.