top separator

Home

Forum

FAQ

Contact Us

Link to Us

MetalTabs.com logo

Bands

0-9

A

B

C

D

E

F

G

H

I

J

K

L

M

N

O

P

Q

R

S

T

U

V

W

X

Y

Z

Windir - "Sognariket sine krigarar" Guitar Tab

Plain Text Version
More Windir Tabs

Hits: 1869
Rated: 3.67 out of 5 (3 votes)
Updated: 2006-08-18 03:45:38

By:


#----------------------------------PLEASE NOTE---------------------------------#
#This file is the author's own work and represents their interpretation of the #
#song. You may only use this file for private study, scholarship, or research. #
#Unless specified otherwise, this is NOT an official tab from the band members.#
#------------------------------------------------------------------------------#

  Visit MetalTabs.com for more metal tablature
  
Windir
                          Sognariket sine krigarar
			      Sˇknardalr
	            Copyright (c)  Head not Found 1997

Transcribed by Guillaume from Apocryphe
Please send comments & corrections to : gehasia@gmail.com
and enjoy Windir, in honor of Valfar !


1-Lead Guitar
2-Rythm Guitar
3-Legend



Lead Guitar

Drop D tuned

     TP                   TP       TP          TP
     W                    H        H           W
E||-------------------|---------------------|-------------------|
B||-------------------|---------------------|-------------------|
G||--5----------------|--10--------8--------|--5----------------|
D||--5----------------|--10--------8--------|--5----------------|
A||--3----------------|---8--------6--------|--3----------------|
D||-------------------|---------------------|-------------------|


   TP       TP
   H        H              E   E   E   E   E   E   E   E
---------------------||---------------------------13------|
---------------------||-------13--16--13------13------13--|
--10--------8--------||*----------------------------------|
--10--------8--------||*--15--------------13--------------|
---8--------6--------||-----------------------------------|
---------------------||-----------------------------------|


   E   E   E   E   E   E   E   E   7x   E   E   E   E   E   E   E   E
-----------------------------------||--------------------------13------|
------13--16--13------16--13--16---||------13--16--13------13------13--|
--13--------------12--------------*||----------------------------------|
----------------------------------*||--15--------------13--------------|
-----------------------------------||----------------------------------|
-----------------------------------||----------------------------------|


                                                          TP
   E   E   E   E   E   E   E   E      W                   W
----------------------------------|--------------------|-------------------|
------13--16--13------16--16--18--|--18----------------|-------------------|
--13--------------12--------------|--------------------|-------------------|
----------------------------------|--------------------|--8----------------|
----------------------------------|--------------------|--6----------------|
----------------------------------|--------------------|-------------------|


   TP            TP      TP                   TP
   H.            Q       W                    W
----------------------|-------------------|--------------------|
----------------------|-------------------|--------------------|
----------------------|-------------------|--------------------|
--10------------------|--8----------------|--10----------------|
---8------------10----|--6----------------|---8----------------|
----------------------|-------------------|--------------------|


  TP                   TP            TP      TP
  W                    H.            Q       W
-------------------|----------------------|-------------------|
-------------------|----------------------|-------------------|
-------------------|----------------------|-------------------|
--8----------------|--10------------------|--8----------------|
--6----------------|---8------------10----|--6----------------|
-------------------|----------------------|-------------------|


     Q    Q     Q    Q       Q    Q     Q    Q       Q    Q     Q    Q
|-------------------------|-------8----11----8----|-------8----11----8----|
|---------9----13----9----|--8--------------------|--9--------------------|
|*--10--------------------|-----------------------|-----------------------|
|*------------------------|-----------------------|-----------------------|
|-------------------------|-----------------------|-----------------------|
|-------------------------|-----------------------|-----------------------|


                                TP                  TP
  Q     Q     Q     Q     4x    W                   W
-------------10-----------||---------------------|-------------------|
--8----11----------11-----||---------------------|-------------------|
-------------------------*||*--------------------|-------------------|
-------------------------*||*--10----------------|--8----------------|
--------------------------||----8----------------|--6----------------|
--------------------------||---------------------|-------------------|


   TP            TP      TP                     TP
   H.            Q       W                      W
----------------------|--------------------||--------------------|
----------------------|--------------------||--------------------|
----------------------|-------------------*||*--5----------------|
--10------------------|--8----------------*||*--5----------------|
---8------------10----|--6-----------------||---3----------------|
----------------------|--------------------||--------------------|


   TP       TP          TP                   TP       TP
   H        H           W                    H        H
---------------------|-------------------|----------------------||
---------------------|-------------------|----------------------||
--10--------8--------|--5----------------|--10--------8--------*||
--10--------8--------|--5----------------|--10--------8--------*||
---8--------6--------|--3----------------|---8--------6---------||
---------------------|-------------------|----------------------||


    TP                  TP                   TP            TP
    W                   W                    H.            Q
---------------------|-------------------|----------------------|
---------------------|-------------------|----------------------|
*--------------------|-------------------|----------------------|
*--10----------------|--8----------------|--10------------------|
----8----------------|--6----------------|---8------------10----|
---------------------|-------------------|----------------------|


  TP
  W                       Q    Q     Q    Q       Q    Q     Q    Q
--------------------||-------------------------|-------8----11----8----|
--------------------||---------9----13----9----|--8--------------------|
-------------------*||*--10--------------------|-----------------------|
--8----------------*||*------------------------|-----------------------|
--6-----------------||-------------------------|-----------------------|
--------------------||-------------------------|-----------------------|


  Q    Q     Q    Q       Q     Q     Q     Q     4x   H         H
-------8----11----8----|-------------10-----------||----------------------|
--9--------------------|--8----11----------11-----||----------------------|
-----------------------|-------------------------*||----------------------|
-----------------------|-------------------------*||--10\-----------------|
-----------------------|--------------------------||---8------------------|
-----------------------|--------------------------||----------------------|


  W                   W                   W
-------------------|-------------------|-------------------|
-------------------|-------------------|-------------------|
-------------------|-------------------|-------------------|
-------------------|-------------------|-------------------|
-------------------|-------------------|-------------------|
-------------------|-------------------|-------------------|


   E  H        Q.        W                   W
----------------------|-------------------|-------------------|
----------------------|-------------------|-------------------|
----------------------|-------------------|-------------------|
--10------------------|-------------------|-------------------|
---8------------------|-------------------|-------------------|
----------------------|-------------------|-------------------|


  W                   W                   W                   W
-------------------|-------------------|-------------------|-------------------|
-------------------|-------------------|-------------------|-------------------|
-------------------|-------------------|-------------------|-------------------|
-------------------|-------------------|-------------------|-------------------|
-------------------|-------------------|-------------------|-------------------|
-------------------|-------------------|-------------------|-------------------|


  W                   W                   W                   W
-------------------|-------------------|-------------------|-------------------|
-------------------|-------------------|-------------------|-------------------|
-------------------|-------------------|-------------------|-------------------|
-------------------|-------------------|-------------------|-------------------|
-------------------|-------------------|-------------------|-------------------|
-------------------|-------------------|-------------------|-------------------|


  W                    H         H            H         H
-------------------|----------------------|----------------------|
-------------------|------------14--------|--13--------11--------|
-------------------|--10------------------|----------------------|
-------------------|----------------------|----------------------|
-------------------|----------------------|----------------------|
-------------------|----------------------|----------------------|


  Q     Q    H           H        H            H         H
----------------------|--------------------|----------------------|
--9----11----9--------|--8--------9--------|------------14--------|
----------------------|--------------------|--10------------------|
----------------------|--------------------|----------------------|
----------------------|--------------------|----------------------|
----------------------|--------------------|----------------------|


   H         H           Q     Q    H            H         H
----------------------|----------------------|----------------------|
--13--------11--------|--9----11----9--------|--11--------13--------|
----------------------|----------------------|----------------------|
----------------------|----------------------|----------------------|
----------------------|----------------------|----------------------|
----------------------|----------------------|----------------------|


                               3                                   3
     E   E   E   E  S  S E  E  E.      E   E   E   E  S  S E   E   E.
|----------------------------------|-----------------------------------|
|-------14--13--11--9-11-9--8--9---|------14--13--11--9-11-9--11--13---|
|*--10-----------------------------|--10-------------------------------|
|*---------------------------------|-----------------------------------|
|----------------------------------|-----------------------------------|
|----------------------------------|-----------------------------------|


                             3
   E   E   E   E  S  S E  E  E.      E   E   E   E  S  S E   E  E
---------------------------------|----------------------------------||
------14--13--11--9-11-9--8--9---|------14--13--11--9-11-9--11------||
--10-----------------------------|--10-----------------------------*||
---------------------------------|---------------------------------*||
---------------------------------|----------------------------------||
---------------------------------|----------------------------------||


    H         H            H         H           Q     Q    H
-----------------------|----------------------|----------------------|
-------------14--------|--13--------11--------|--9----11----9--------|
*--10------------------|----------------------|----------------------|
*----------------------|----------------------|----------------------|
-----------------------|----------------------|----------------------|
-----------------------|----------------------|----------------------|


  H        H            H         H            H         H
--------------------|----------------------|----------------------|
--8--------9--------|------------14--------|--13--------11--------|
--------------------|--10------------------|----------------------|
--------------------|----------------------|----------------------|
--------------------|----------------------|----------------------|
--------------------|----------------------|----------------------|


  Q     Q    H            H         H
----------------------|-----------------------||
--9----11----9--------|--11--------13---------||
----------------------|----------------------*||
----------------------|----------------------*||
----------------------|-----------------------||
----------------------|-----------------------||


                              3                                   3
    E   E   E   E  S  S E  E  E.      E   E   E   E  S  S E   E   E.
----------------------------------|-----------------------------------|
-------14--13--11--9-11-9--8--9---|------14--13--11--9-11-9--11--13---|
*--10-----------------------------|--10-------------------------------|
*---------------------------------|-----------------------------------|
----------------------------------|-----------------------------------|
----------------------------------|-----------------------------------|


                             3                                  3
   E   E   E   E  S  S E  E  E.      E   E   E   E  S  S E   E  E.
---------------------------------|-----------------------------------||
------14--13--11--9-11-9--8--9---|------14--13--11--9-11-9--11-------||
--10-----------------------------|--10------------------------------*||
---------------------------------|----------------------------------*||
---------------------------------|-----------------------------------||
---------------------------------|-----------------------------------||


   TP                  TP                   TP            TP
   W                   W                    H.            Q
--------------------|-------------------|----------------------|
--------------------|-------------------|----------------------|
--------------------|-------------------|----------------------|
--10----------------|--8----------------|--10------------------|
---8----------------|--6----------------|---8------------10----|
--------------------|-------------------|----------------------|


  TP                   TP                  TP
  W                    W                   W
-------------------|--------------------|-------------------|
-------------------|--------------------|-------------------|
-------------------|--------------------|-------------------|
--8----------------|--10----------------|--8----------------|
--6----------------|---8----------------|--6----------------|
-------------------|--------------------|-------------------|


   TP            TP      TP       TP              TP
   H.            Q       H        Q.     E        W
----------------------|---------------------||---------------------|
----------------------|---------------------||---------------------|
----------------------|---------------------||*--------------------|
--10------------------|--8--------8---------||*--10----------------|
---8------------10----|--6--------6---------||----8----------------|
----------------------|---------------------||---------------------|


  TP                   TP            TP      TP
  W                    H.            Q       W
-------------------|----------------------|--------------------||
-------------------|----------------------|--------------------||
-------------------|----------------------|-------------------*||
--8----------------|--10------------------|--8----------------*||
--6----------------|---8------------10----|--6-----------------||
-------------------|----------------------|--------------------||


    E   E   E   E   E   E   E   E      E   E   E   E   E   E   E   E   3x
---------------------------13------|-----------------------------------||
-------13--16--13------13------13--|------13--16--13------16--13--16---||
*----------------------------------|--13--------------12--------------*||
*--15--------------13--------------|----------------------------------*||
-----------------------------------|-----------------------------------||
-----------------------------------|-----------------------------------||


   E   E   E   E   E   E   E   E      E   E   E   E   E   E   E   E
--------------------------13------|----------------------------------|
------13--16--13------13------13--|------13--16--13------16--16--18--|
----------------------------------|--13--------------12--------------|
--15--------------13--------------|----------------------------------|
----------------------------------|----------------------------------|
----------------------------------|----------------------------------|


                       TP                   TP            TP
   W                   W                    H.            Q
--------------------|-------------------|----------------------|
--18----------------|-------------------|----------------------|
--------------------|-------------------|----------------------|
--------------------|--8----------------|--10------------------|
--------------------|--6----------------|---8------------10----|
--------------------|-------------------|----------------------|


  TP                   TP                  TP
  W                    W                   W
-------------------|--------------------|-------------------|
-------------------|--------------------|-------------------|
-------------------|--------------------|-------------------|
--8----------------|--10----------------|--8----------------|
--6----------------|---8----------------|--6----------------|
-------------------|--------------------|-------------------|


   TP            TP      TP
   H.            Q       W                      Q    Q     Q    Q
----------------------|-------------------||-------------------------|
----------------------|-------------------||---------9----13----9----|
----------------------|-------------------||*--10--------------------|
--10------------------|--8----------------||*------------------------|
---8------------10----|--6----------------||-------------------------|
----------------------|-------------------||-------------------------|


  Q    Q     Q    Q       Q    Q     Q    Q       Q     Q     Q     Q     4x
-------8----11----8----|-------8----11----8----|-------------10-----------||
--8--------------------|--9--------------------|--8----11----------11-----||
-----------------------|-----------------------|-------------------------*||
-----------------------|-----------------------|-------------------------*||
-----------------------|-----------------------|--------------------------||
-----------------------|-----------------------|--------------------------||


                              3                                   3
    E   E   E   E  S  S E  E  E.      E   E   E   E  S  S E   E   E.
----------------------------------|-----------------------------------|
-------14--13--11--9-11-9--8--9---|------14--13--11--9-11-9--11--13---|
*--10-----------------------------|--10-------------------------------|
*---------------------------------|-----------------------------------|
----------------------------------|-----------------------------------|
----------------------------------|-----------------------------------|


                             3
   E   E   E   E  S  S E  E  E.      E   E   E   E  S  S E   E  E
---------------------------------|----------------------------------||
------14--13--11--9-11-9--8--9---|------14--13--11--9-11-9--11------||
--10-----------------------------|--10-----------------------------*||
---------------------------------|---------------------------------*||
---------------------------------|----------------------------------||
---------------------------------|----------------------------------||


Rythm Guitar

Drop D tuned

     TP                   TP       TP          TP        TP
     W                    H        H           H         H
E||-------------------|---------------------|---------------------|
B||-------------------|---------------------|---------------------|
G||--5----------------|--10--------8--------|--5--------10--------|
D||--5----------------|--10--------8--------|--5--------10--------|
A||--3----------------|---8--------6--------|--3---------8--------|
D||-------------------|---------------------|---------------------|


   TP       TP            TP                   TP       TP
   H        H             W                    H        H         7x
---------------------||--------------------|----------------------||
---------------------||--------------------|----------------------||
--10--------8--------||*--5----------------|--10--------8--------*||
--10--------8--------||*--5----------------|--10--------8--------*||
---8--------6--------||---3----------------|---8--------6---------||
---------------------||--------------------|----------------------||


  TP                   TP       TP           TP
  W                    H        H            W
-------------------|---------------------|--------------------|
-------------------|---------------------|--------------------|
--5----------------|--10--------8--------|--------------------|
--5----------------|--10--------8--------|--10----------------|
--3----------------|---8--------6--------|---8----------------|
-------------------|---------------------|--------------------|


  TP                   TP            TP      TP
  W                    H.            Q       W
-------------------|----------------------|-------------------|
-------------------|----------------------|-------------------|
-------------------|----------------------|-------------------|
--8----------------|--10------------10----|--8----------------|
--6----------------|---8------------10----|--6----------------|
-------------------|----------------------|-------------------|


   TP                  TP                   TP            TP
   W                   W                    H.            Q
--------------------|-------------------|----------------------|
--------------------|-------------------|----------------------|
--------------------|-------------------|----------------------|
--10----------------|--8----------------|--10------------10----|
---8----------------|--6----------------|---8------------10----|
--------------------|-------------------|----------------------|


  TP                     TP                   TP
  W                      W                    W
-------------------||---------------------|--------------------|
-------------------||---------------------|--------------------|
-------------------||*--------------------|--------------------|
--8----------------||*--10----------------|--12----------------|
--6----------------||----8----------------|--10----------------|
-------------------||---------------------|--------------------|


   TP                   TP                      TP
   W                    W                 4x    W
--------------------|---------------------||---------------------|
--------------------|---------------------||---------------------|
--------------------|--------------------*||*--------------------|
--13----------------|--12----------------*||*--10----------------|
--11----------------|--10-----------------||----8----------------|
--------------------|---------------------||---------------------|


  TP                   TP            TP      TP
  W                    H.            Q       W
-------------------|----------------------|--------------------||
-------------------|----------------------|--------------------||
-------------------|----------------------|-------------------*||
--8----------------|--10------------10----|--8----------------*||
--6----------------|---8------------10----|--6-----------------||
-------------------|----------------------|--------------------||


   TP                   TP       TP          TP        TP
   W                    H        H           H         H
--------------------|---------------------|---------------------|
--------------------|---------------------|---------------------|
*--5----------------|--10--------8--------|--5--------10--------|
*--5----------------|--10--------8--------|--5--------10--------|
---3----------------|---8--------6--------|--3---------8--------|
--------------------|---------------------|---------------------|


   TP       TP              TP                  TP
   H        H               W                   W
----------------------||---------------------|-------------------|
----------------------||---------------------|-------------------|
--10--------8--------*||*--------------------|-------------------|
--10--------8--------*||*--10----------------|--8----------------|
---8--------6---------||----8----------------|--6----------------|
----------------------||---------------------|-------------------|


   TP            TP      TP                      TP
   H.            Q       W                       W
----------------------|--------------------||---------------------|
----------------------|--------------------||---------------------|
----------------------|-------------------*||*--------------------|
--10------------10----|--8----------------*||*--10----------------|
---8------------10----|--6-----------------||----8----------------|
----------------------|--------------------||---------------------|


   TP                   TP                   TP
   W                    W                    W                 4x
--------------------|--------------------|---------------------||
--------------------|--------------------|---------------------||
--------------------|--------------------|--------------------*||
--12----------------|--13----------------|--12----------------*||
--10----------------|--11----------------|--10-----------------||
--------------------|--------------------|---------------------||


   TP   TP        TP       TP       TP          TP       TP
   Q    H         Q        H        H           H        H
-----------------------|---------------------|--------------------|
-----------------------|---------------------|--------------------|
-----------------------|---------------------|--------------------|
--10-------------11----|--10--------8--------|--6--------8--------|
---8----8---------8----|---8--------8--------|--8--------8--------|
-----------------------|---------------------|--------------------|


  TP       TP           TP   TP        TP       TP       TP
  H        H            Q    H         Q        H        H
--------------------|-----------------------|---------------------|
--------------------|-----------------------|---------------------|
--------------------|-----------------------|---------------------|
--6--------5--------|--10-------------11----|--10--------8--------|
--3--------3--------|---8----8---------8----|---8--------8--------|
--------------------|-----------------------|---------------------|


  TP       TP          TP       TP           TP    TP        TP
  H        H           H        H            Q     H         Q
--------------------|--------------------|------------------------|
--------------------|--------------------|------------------------|
--------------------|--------------------|------------------------|
--6--------8--------|--6--------5--------|--10----10--------11----|
--8--------8--------|--3--------3--------|---8-----8---------8----|
--------------------|--------------------|------------------------|


   TP       TP          TP       TP          TP       TP
   H        H           H        H           H        H
---------------------|--------------------|--------------------|
---------------------|--------------------|--------------------|
---------------------|--------------------|--------------------|
--10--------8--------|--6--------8--------|--6--------5--------|
---8--------8--------|--8--------8--------|--3--------3--------|
---------------------|--------------------|--------------------|


   TP    TP        TP       TP       TP          TP       TP
   Q     H         Q        H        H           H        H
------------------------|---------------------|--------------------|
------------------------|---------------------|--------------------|
------------------------|---------------------|--------------------|
--10----10--------11----|--10--------8--------|--6--------8--------|
---8-----8---------8----|---8--------8--------|--8--------8--------|
------------------------|---------------------|--------------------|


  TP       TP           TP        TP           TP       TP
  H        H            H         H            H        H
--------------------|----------------------|---------------------|
--------------------|----------------------|---------------------|
--------------------|----------------------|---------------------|
--6--------5--------|--10--------11--------|--10--------8--------|
--3--------3--------|---8---------8--------|---8--------8--------|
--------------------|----------------------|---------------------|


  TP       TP          TP       TP           TP        TP
  H        H           H        H            H         H
--------------------|--------------------|----------------------|
--------------------|--------------------|----------------------|
--------------------|--------------------|----------------------|
--6--------8--------|--6--------5--------|--10--------11--------|
--8--------8--------|--3--------3--------|---8---------8--------|
--------------------|--------------------|----------------------|


   TP       TP          TP       TP          TP       TP
   H        H           H        H           H        H
---------------------|--------------------|--------------------|
---------------------|--------------------|--------------------|
---------------------|--------------------|--------------------|
--10--------8--------|--6--------8--------|--6--------5--------|
---8--------8--------|--8--------8--------|--3--------3--------|
---------------------|--------------------|--------------------|


     TP            TP       TP            TP       TP            TP
     H.            Q        H.            Q        H.            Q
|-----------------------|----------------------|----------------------|
|-----------------------|----------------------|----------------------|
|*--10------------------|--10------------------|--10------------------|
|*--10------------10----|--10------------10----|--10------------10----|
|----8------------10----|---8------------10----|---8------------10----|
|-----------------10----|----------------10----|----------------10----|


   TP            TP           TP        TP           TP       TP
   H.            E  E         H         H            H        H
------------------------||-----------------------|---------------------|
------------------------||-----------------------|---------------------|
--10-------------------*||*----------------------|---------------------|
--10------------10-----*||*--10--------11--------|--10--------8--------|
---8------------10------||----8---------8--------|---8--------8--------|
----------------10------||-----------------------|---------------------|


  TP       TP          TP       TP           TP        TP
  H        H           H        H            H         H
--------------------|--------------------|----------------------|
--------------------|--------------------|----------------------|
--------------------|--------------------|----------------------|
--6--------8--------|--6--------5--------|--10--------11--------|
--8--------8--------|--3--------3--------|---8---------8--------|
--------------------|--------------------|----------------------|


   TP       TP          TP       TP          TP       TP
   H        H           H        H           H        H
---------------------|--------------------|---------------------||
---------------------|--------------------|---------------------||
---------------------|--------------------|--------------------*||
--10--------8--------|--6--------8--------|--6--------5--------*||
---8--------8--------|--8--------8--------|--3--------3---------||
---------------------|--------------------|---------------------||


    TP            TP       TP            TP       TP            TP
    H.            Q        H.            Q        H.            Q
-----------------------|----------------------|----------------------|
-----------------------|----------------------|----------------------|
*--10------------------|--10------------------|--10------------------|
*--10------------10----|--10------------10----|--10------------10----|
----8------------10----|---8------------10----|---8------------10----|
-----------------10----|----------------10----|----------------10----|


   TP            TP          TP                  TP
   H.            E  E        W                   W
------------------------||--------------------|-------------------|
------------------------||--------------------|-------------------|
--10-------------------*||--------------------|-------------------|
--10------------10-----*||--10----------------|--8----------------|
---8------------10------||---8----------------|--6----------------|
----------------10------||--------------------|-------------------|


   TP            TP      TP                   TP
   H.            Q       W                    W
----------------------|-------------------|--------------------|
----------------------|-------------------|--------------------|
----------------------|-------------------|--------------------|
--10------------10----|--8----------------|--10----------------|
---8------------10----|--6----------------|---8----------------|
----------------------|-------------------|--------------------|


  TP                   TP            TP      TP       TP
  W                    H.            Q       H        Q.     E
-------------------|----------------------|---------------------|
-------------------|----------------------|---------------------|
-------------------|----------------------|---------------------|
--8----------------|--10------------10----|--8--------8---------|
--6----------------|---8------------10----|--6--------6---------|
-------------------|----------------------|---------------------|


     TP                  TP                   TP            TP
     W                   W                    H.            Q
|---------------------|-------------------|----------------------|
|---------------------|-------------------|----------------------|
|*--------------------|-------------------|----------------------|
|*--10----------------|--8----------------|--10------------10----|
|----8----------------|--6----------------|---8------------10----|
|---------------------|-------------------|----------------------|


  TP                     TP                   TP       TP
  W                      W                    H        H         3x
--------------------||--------------------|----------------------||
--------------------||--------------------|----------------------||
-------------------*||*--5----------------|--10--------8--------*||
--8----------------*||*--5----------------|--10--------8--------*||
--6-----------------||---3----------------|---8--------6---------||
--------------------||--------------------|----------------------||


  TP                   TP       TP           TP
  W                    H        H            W
-------------------|---------------------|--------------------|
-------------------|---------------------|--------------------|
--5----------------|--10--------8--------|--------------------|
--5----------------|--10--------8--------|--10----------------|
--3----------------|---8--------6--------|---8----------------|
-------------------|---------------------|--------------------|


  TP                   TP            TP      TP
  W                    H.            Q       W
-------------------|----------------------|-------------------|
-------------------|----------------------|-------------------|
-------------------|----------------------|-------------------|
--8----------------|--10------------10----|--8----------------|
--6----------------|---8------------10----|--6----------------|
-------------------|----------------------|-------------------|


   TP                  TP                   TP            TP
   W                   W                    H.            Q
--------------------|-------------------|----------------------|
--------------------|-------------------|----------------------|
--------------------|-------------------|----------------------|
--10----------------|--8----------------|--10------------10----|
---8----------------|--6----------------|---8------------10----|
--------------------|-------------------|----------------------|


  TP                     TP                   TP
  W                      W                    W
-------------------||---------------------|--------------------|
-------------------||---------------------|--------------------|
-------------------||*--------------------|--------------------|
--8----------------||*--10----------------|--12----------------|
--6----------------||----8----------------|--10----------------|
-------------------||---------------------|--------------------|


   TP                   TP                      TP            TP
   W                    W                 4x    H.            Q
--------------------|---------------------||-----------------------|
--------------------|---------------------||-----------------------|
--------------------|--------------------*||*--10------------------|
--13----------------|--12----------------*||*--10------------10----|
--11----------------|--10-----------------||----8------------10----|
--------------------|---------------------||-----------------10----|


   TP            TP       TP            TP       TP            TP
   H.            Q        H.            Q        H.            E  E
----------------------|----------------------|------------------------||
----------------------|----------------------|------------------------||
--10------------------|--10------------------|--10-------------------*||
--10------------10----|--10------------10----|--10------------10-----*||
---8------------10----|---8------------10----|---8------------10------||
----------------10----|----------------10----|----------------10------||




Duration Legend
---------------
W - whole
H - half
Q - quarter
E - 8th
S - 16th
T - 32nd
X - 64th
. - note dotted
|-n-|  - n-tuplets


Tablature Legend
----------------
L - tied note
x - dead note
g - grace note
(n) - ghost note
> - accentuded note
NH - natural harmonic
AH - artificial harmonic
TH - tapped harmonic
SH - semi harmonic
PH - pitch harmonic
h - hammer on
p - pull off
b - bend
br - bendRelease
pb - preBend
pbr - preBendRelease
brb - bendReleaseBend
\n/ - tremolo bar dip
\n - tremolo bar dive
-/n - tremolo bar Release up
/n\ - tremolo bar inverted dip
/n - tremolo bar return
-\n - tremolo bar Release down
S - shift slide
s - legato slide
/ -  slide into from below or out of upwards
\ -  slide into from above or out of downwards
~ - vibrato
W - wide vibrato
tr - trill
TP - tremolo picking
T - tapping
S - slap
P - pop
< - fade in
^ - brush up
v - brush down

  Visit MetalTabs.com for more metal tablature

bottom separator

Contact Us | Privacy Policy | Disclaimer
Copyright © 2001-2014 MetalTabs.com. All Rights Reserved.