top separator

Home

Forum

What's New

Submit a Tab

FAQ

Links

Contact Us

Link to Us

MuSpy.com

MetalTabs.com logo

Bands

0-9

A

B

C

D

E

F

G

H

I

J

K

L

M

N

O

P

Q

R

S

T

U

V

W

X

Y

Z

Search

What

Where
 

Sodom - "Exhibition Bout" Guitar Tab

Plain Text Version
More Sodom Tabs

Hits: 2606
Rated: 5.00 out of 5 (4 votes)
Updated: 2006-08-18 03:44:19

 

By:

Hidrio

sendpm.gif

email.gif

Important note
This tab is available online because we obtained explicit permission from Sodom or their label.


#----------------------------------PLEASE NOTE---------------------------------#
#This file is the author's own work and represents their interpretation of the #
#song. You may only use this file for private study, scholarship, or research. #
#Unless specified otherwise, this is NOT an official tab from the band members.#
#------------------------------------------------------------------------------#

  Visit MetalTabs.com for more metal tablature
  
Band:  Sodom
Album: Agent Orange
Song:  Exhibition Bout

Copyright (c)  Steamhammer (1989)
Version 1.0 - 26/7/06

Transcribed By: Ryan
Email:          ryanhidrio@hotmail.com


.  - palm mute           /  - slide up to
\  - slide down to       ~  - vibrato
h  - hammer on           b  - Bend
p  - pull off            Suffixes for bend
t  - tap                 f  - full bend    h - half bend
ph - pinched harmonic    q  - quarter bend t - tap bend
*  - see comment         ^  - Hold bend    r release bend
x  - Staccato            ~  - vibrato bend
,  - slight palm mute    () - ghost note, sustained note
"  - tremolo note        <> - Trill


Tuning E A D G B E


|-----| |--------------------------------------------------------|
|-----| |--------------------------------------------------------|
|-----| |--------------------------------------------------------|
|-2-2-| |-2--------------5--------------7--------------5-5-5-----|
|-0-0-| |-0-000000000000-3-000000000000-5-000000000000-2-2-2-000-|
|-----| |--------------------------------------------------------| x6 (x4 after
            ............   ............   ............       ...       chorus)

||------------------------------------------------------------|
||------------------------------------------------------------|
||------------------------------------------------------------|
||------------------------------------------------------------|
||-3---------------------33332222-------------------------3-5-|
||-1-00000000000033332222--------111111111111111111111111-1-3-|
     ....................................................
|------------------------------------------------------------||
|------------------------------------------------------------||
|------------------------------------------------------------||
|--------------------------------------------------------5---||
|-2---------------------33332222666666666666666666666666-2---||
|-0-00000000000033332222-------------------------------------|| x2
    .................................................... (2nd time through keep
                                                          the 6's going on the A
Repeat all of the above x1                                until the verse riff)


|-----------------------------------------------------------------|
|-----------------------------------------------------------------|
|-----------------------------------------------------------------|
|-----------------------------------------------------------------|
|-7---------------------8-8\4-4/5-5---------------------5-5/8-8\7-|
|-5-5-5-5-5-5-5-5-5-5-5-6-6\2-2/3-3-3-3-3-3-3-3-3-3-3-3-3-3/6-6\5-| x4
    . . . . . . . . . .             . . . . . . . . . .

|-------------------------------------------------------------------|
|-------------------------------------------------------------------|
|---------------4th-time-through------------------------------------|
|---------------play-this-ending------------------------------------|
|---------------------------------5---------------3-----------------|
|---------------------------------3-3-3-3-3-3-3-3-1-1-1-1-1-1-1-1---|
                                    . . . . . . .   . . . . . . .

|---| |-----------------------------------------------------------------|
|---| |-----------------------------------------------------------------|
|---| |-----------------------------------------------------------------|
|---| |---------------------0h2p0-0-------------------------------3-----|
|-2-| |-----2-------2-------------1---2-----2-------2-------3-----1---2-|
|-0-| |-0-0-0-0-0-0-0-0-0-0-----------0-0-0-0-0-0-0-0-0-0-0-1---------0-| x2
        . .   . . .   . . .             . .   . . .   . . .

|-----------------------------------------------------------------|
|-----------------------------------------------------------------|
|---------------------0h2p0-0-------------------------------3-----|
|---------------------------1---2-----2-------2-------3-----1---2-|
|-----2-------2-----------------0-0-0-0-0-0-0-0-0-0-0-1---------0-|
|-0-0-0-0-0-0-0-0-0-0---------------------------------------------|
  . .   . . .   . . .             . .   . . .   . . .

|-----------------------------------------------------------------|
|-----------------------------------------------------------------|
|---------------------0h2p0-0-------------------------------3-----|
|-----2-------2-------------1---2-----2-------2-------3-----1---2-|
|-0-0-0-0-0-0-0-0-0-0-----------0-0-0-0-0-0-0-0-0-0-0-1---------0-|
|-----------------------------------------------------------------|
  . .   . . .   . . .             . .   . . .   . . .

|-----------------------------------------------------------------|
|-----------------------------------------------------------------|
|-----------------------------------------------------------------|
|-----2-------2-------0h2p0-0-------------------------------3-----|
|-0-0-0-0-0-0-0-0-0-0-------1---2-----2-------2-------3-----1---2-|
|-------------------------------0-0-0-0-0-0-0-0-0-0-0-1---------0-|
  . .   . . .   . . .             . .   . . .   . . .

|-----------------------------------------------------------------|
|-----------------------------------------------------------------|
|-----------------------------------------------------------------|
|---------------------0h2p0-0-------------------------------3-----|
|-----2-------2-------------1---2-----2-------2-------3-----1---2-|
|-0-0-0-0-0-0-0-0-0-0-----------0-0-0-0-0-0-0-0-0-0-0-1---------0-|
  . .   . . .   . . .             . .   . . .   . . .

|----------------------------|
|----------------------------|
|----------------------------|
|----------------------------|
|-----2----------------------|
|-0-0-0-0-0-0-0-0-0-0-0-0-0-0|
  . .   . . . . . . . . . . .


Riff under solo
||---------------------------------------------------------------|
||---------------------------------------------------------------|
||---------------------------------------------------------------|
||-9------------------------------7------------------------------|
||-7-7777777777777777777777777777-5-5555555555555555555555555555-|
||---------------------------------------------------------------|
     ............................   ............................

|---------------------------------------------------------------|
|---------------------------------------------------------------|
|---------------------------------------------------------------|
|-5--------------7--------------9-------------------------------|
|-3-333333333333-5-555555555555-7-7777777777777777777777777777--|
|---------------------------------------------------------------|
    ............   ............   ............................

|---------------------------------------------------------------|
|---------------------------------------------------------------|
|---------------------------------------------------------------|
|-9------------------------------7------------------------------|
|-7-7777777777777777777777777777-5-5555555555555555555555555555-|
|---------------------------------------------------------------|
    ............................   ............................

|---------------------------------------------------------------||
|---------------------------------------------------------------||
|---------------------------------------------------------------||
|-5--------------7--------------2-------------------------------||
|-3-333333333333-5-555555555555-0-0000000000000000000000000000--||
|---------------------------------------------------------------|| x2
    ............   ............ ^ ............................
                                ^
                                ^ 2nd time through go to >> v
  v <<  <<  <<  <<  <<  <<  <<  <<  <<  <<  <<  <<  <<  <<  v
  v
|--------------------------------------------------------|
|--------------------------------------------------------|
|--------------------------------------------------------|
|-2--------------5--------------7--------------5-5-5-----|
|-0-000000000000-3-000000000000-5-000000000000-2-2-2-000-|
|--------------------------------------------------------| x6
    ............   ............   ............       ...


|------------------------------------------------------------|
|------------------------------------------------------------|
|------------------------------------------------------------|
|------------------------------------------------------------|
|-3---------------------33332222-------------------------3-5-|
|-1-00000000000033332222--------111111111111111111111111-1-3-|
     ...................................................

|------------------------------------------------------------|
|------------------------------------------------------------|
|------------------------------------------------------------|
|--------------------------------------------------------5---|
|-2---------------------33332222666666666666666666666666-2---|
|-0-00000000000033332222-------------------------------------|
    ....................................................

|------------------------------------------------------------|
|------------------------------------------------------------|
|------------------------------------------------------------|
|------------------------------------------------------------|
|-3---------------------33332222-------------------------3-5-|
|-1-00000000000033332222--------111111111111111111111111-1-3-|
     ...................................................

|-------------------------------------------------------------------|
|-------------------------------------------------------------------|
|-------------------------------------------------------------------|
|----------------------------------------------------------------9\-|
|-2---------------------3333222266666666666666666666666666666666-7\-|
|-0-00000000000033332222--------------------------------------------|
    ............................................................


 END

  Visit MetalTabs.com for more metal tablature

bottom separator

Contact Us | Privacy Policy | Disclaimer | Legal Notice
Copyright © 2001-2014 MetalTabs.com. All Rights Reserved.