top separator

Home

Forum

What's New

Submit a Tab

FAQ

Links

Contact Us

Link to Us

MetalTabs.com logo

Bands

0-9

A

B

C

D

E

F

G

H

I

J

K

L

M

N

O

P

Q

R

S

T

U

V

W

X

Y

Z

Search

What

Where
 

Mayhem - "A Grand Declaration Of War" Bass Tab

Plain Text Version
More Mayhem Tabs

Hits: 3001
Updated: 2006-08-18 03:43:15

 

By:

sendpm.gif

email.gif

Important note
This tab is available online because we obtained explicit permission from Mayhem or their label.


#----------------------------------PLEASE NOTE---------------------------------#
#This file is the author's own work and represents their interpretation of the #
#song. You may only use this file for private study, scholarship, or research. #
#Unless specified otherwise, this is NOT an official tab from the band members.#
#------------------------------------------------------------------------------#

  Visit MetalTabs.com for more metal tablature
  
ARTIST: MAYHEM
MUSIC: A GRAND DECLARATION OF WAR ( GRAND DECLARATION OF WAR,TRACK 1 04:13 )
2000 SEASON OF MIST
BASS PLAYER: NECROBUTCHER
BASS TAB: NARCISO (PT) FLYINGSOUL@DARKSITES.COM


RIFF 1
|-4----/11-10-4------11-11-10-10-10-|
|-----------------------------------|
|-----------------------------------|
|-----------------------------------|

RIFF 2
|-4-4-4-4-4-4-4-4-4-4-4-4-11-11-10-10-10-10-|
|-------------------------------------------|
|-------------------------------------------|
|-------------------------------------------|

RIFF 3
|-4-4-4-4-4-4-4-4-4-4-4-4-11-11-10-10-|
|-------------------------------------|
|-------------------------------------|
|-------------------------------------|

RIFF 4
|-4-------11-11-10-10-10----4----/10----4----/10----4----/10----4----/10-|
|------------------------------------------------------------------------|
|------------------------------------------------------------------------|
|------------------------------------------------------------------------|

RIFF 5
|-4-4-4-4-4-4-4-4-4-4-4-4-/10-10-10-10-10-10-10-10-10-10-10-10-11-11-|
|--------------------------------------------------------------------|
|--------------------------------------------------------------------|
|--------------------------------------------------------------------|

RIFF 6
|-4--------11-/10-|
|-----------------|
|-----------------|
|-----------------|

RIFF 7
|-4-4-4-4-/10-10-10-11-/10-|
|--------------------------|
|--------------------------|
|--------------------------|

RIFF 8
|-4----1-/10-|
|------------|
|------------|
|------------|

RIFF 9
|-4-4-4-4-/10-10-10--11-/10-|
|---------------------------|
|---------------------------|
|---------------------------|

RIFF 1 1X (00:12)
RIFF 2 3X (00:28)
RIFF 3 1X (00:38)
RIFF 4 4X (00:43)
RIFF 5 2X (01:10)
RIFF 6 2X (01:25)
RIFF 3 4X (01:39)
RIFF 7 9X (02:21)
RIFF 8 2X (03:17)
RIFF 9 1X (04:05)

  Visit MetalTabs.com for more metal tablature

bottom separator

Contact Us | Privacy Policy | Disclaimer | Legal Notice
Copyright © 2001-2014 MetalTabs.com. All Rights Reserved.