top separator

Home

Forum

What's New

Submit a Tab

FAQ

Links

Contact Us

Link to Us

MetalTabs.com logo

Bands

0-9

A

B

C

D

E

F

G

H

I

J

K

L

M

N

O

P

Q

R

S

T

U

V

W

X

Y

Z

Search

What

Where
 

Gates of Ishtar - "No Time" Guitar Tab

Plain Text Version
More Gates of Ishtar Tabs

Hits: 1748
Updated: 2006-08-18 00:27:08

 

By:

xgrafcorex

sendpm.gif

email.gif

Important note
This tab is available online because we obtained explicit permission from Gates of Ishtar or their label.


#----------------------------------PLEASE NOTE---------------------------------#
#This file is the author's own work and represents their interpretation of the #
#song. You may only use this file for private study, scholarship, or research. #
#Unless specified otherwise, this is NOT an official tab from the band members.#
#------------------------------------------------------------------------------#

  Visit MetalTabs.com for more metal tablature
  
band: gates of ishtar
song: no time
album: the dawn of flames
copyright: death records 1998

transcribed by: brian flanagan
email: xgrafcorex@hotmail.com

tuning: standard d

. palm mute
^ bend
/ slide up
\ slide down
* pinch harmonic

  :00
e|-------------------intro---------------------------------|
B|---------------------------------------------------------|
G|---4p2h4---4p2h4---------------4p2h4---4p2h4-----2-------|
D|-----------------5-4-------------------------5-4---0-2-4-|
A|---------------------2-3---------------------------------|
E|-0-------0---------------3-2-0-------0-------------------|


  :29                                       :45     1:15              1:40
e|-------part a----------------------------|-------|----part b-------|-----|
B|-----------------------------------------|-------|-----------------|-----|
G|-----------------------------------------|-------|-------------4-2-|-----|
D|---5-4-2---------2-4---5-4-2-------2-4---|-intro-|-5-2---0-5-2-----|-9---|
A|---------5-2-3-5-----5-------5-0-2-----5-|-------|-----3-----------|-7-2-|
E|-0---------------------------------------|-------|-----------------|---0-|
									 .

  1:41    2:10              2:20
e|-------|-----------------|-----------------------------------------------|
B|-------|-----------------|-----------------------------------------------|
G|-------|---7-6-9---6-7---|-4---------2-----4-2---4---------2-4---------2-|
D|-intro-|-9-5-4-7---4-5-7-|---5-4-2-4---5-------5---5-4-2-4-----5---0-4---|
A|-------|-7-------3-----5-|---------------3-----------------------3-------|
E|-------|-----------------|-----------------------------------------------|
           .       .

  2:41                2:53                                   3:04
e|-------------------|--------------------------------------|------------|
B|-------------------|--------------------------------------|------------|
G|----------11/12\11-|--------------------------------------|---------11-|
D|-12-11-12--9/10\-9-|-------------7------7-9-7----7-9h10p9-|-------9--9-|
A|-10--9-10----------|-10-9-7-9-10---10-9-------10----------|-10-12-7----|
E|-------------------|--------------------------------------|--8-10------|


  3:16                                                   3:22     3:52
e|------------------------------------------------------|--------|-------------|
B|------------------------------------------------------|--------|-------------|
G|---------------------------------------------------4*-|--------|-------------|
D|---5-4-2---------2-4---5-4-2-----------2-0-2-3-5-3----|-part a-|-part b------|
A|-2-------5-2-3-5-----5-------5-0-5-3-5----------------|--------|-------------|
E|-0----------------------------------------------------|--------|-------------|
   .                               . . . . . . . . .

  4:16    4:45
e|-------|-----------------|-----|
B|-------|-----------------|-----|
G|-------|-----------------|-----|
D|-intro-|---5-4-2---4-5^\-|-end-|
A|-------|-2-------5-------|-----|
E|-------|-0---------------|-----|
           .

  Visit MetalTabs.com for more metal tablature

bottom separator

Contact Us | Privacy Policy | Disclaimer | Legal Notice
Copyright © 2001-2014 MetalTabs.com. All Rights Reserved.