top separator

Home

Forum

FAQ

Contact Us

Link to Us

MetalTabs.com logo

Bands

0-9

A

B

C

D

E

F

G

H

I

J

K

L

M

N

O

P

Q

R

S

T

U

V

W

X

Y

Z

Windir - "Rovhaugane" Guitar Tab

Plain Text Version
More Windir Tabs

Hits: 1438
Updated: 2006-08-17 05:58:30

By:

johnnyturbo3


#----------------------------------PLEASE NOTE---------------------------------#
#This file is the author's own work and represents their interpretation of the #
#song. You may only use this file for private study, scholarship, or research. #
#Unless specified otherwise, this is NOT an official tab from the band members.#
#------------------------------------------------------------------------------#

  Visit MetalTabs.com for more metal tablature
  
Band:  Windir
Album: Sˇknardalr
Song:  Rovhaugane

Copyright (c)  Head Not Found (1997)
Version 1.0 - (21.7.06)

Transcribed By: Nathan Flynn
Email:          Johnnyturbo3@yahoo.co.uk


.  - palm mute

Tuning E A D G B E (Stardard)

Intro
E]---------------------
B]-------------------11
G]7----10----9---12--10
D]7----10----9---12--8
A]5----8-----7---10---
E]--------------------


(0:03) 2nd guitar plays this rather than the last two chords of the intro
E]-------------------
B]-----------14-11-11
G]15-12-12-----------
D]-------------------
A]-------------------
E]-------------------


(0:05)
E]-----------------------------------------------
B]--------4------------9------------8----------11
G] ----5------------10-----------9-------12----10
D]--5----------- 10-----------9----------12----8-
A]7------------8------------7------------10------
E]-----------------------------------------------


(0:08) Again 2nd guitar instead of the last two chords
E]-------------------
B]-----------14-11-11
G]15-12-12-----------
D]-------------------
A]-------------------
E]-------------------


Riff A (0:09) 2nd guitar lead, rhythm guitar plays intro.
E]---------------------------------------------------------------------
B]-------------------------------------------------------------14-11-11
G]-------14-15-14---------17-18-17---------16-17-16---15-12-12---------
D]-12-15----------15-15-18---------18-14-17---------17-----------------
A]---------------------------------------------------------------------
E]---------------------------------------------------------------------


Riff B Lead(0:36)  (This looks a mess,
feel free to clear it up if you think you can lay it out more clearly)
E]-------------------------------------------------------
B]-------------------------------------------------------
G]77-99-77-99-77-99-77-99-99-1010-99-1010-99-1010-99-1010
D]-------------------------------------------------------
A]-------------------------------------------------------
E]-------------------------------------------------------
Riff B lead continued
E]-----------------------------------------------------------------
B]-----------------------------------------------------------------
G]1010-1212-1010-1212-1414-1212-1010-99-1010-99-1010-99-77-66-77-66
D]-----------------------------------------------------------------
A]-----------------------------------------------------------------
E]-----------------------------------------------------------------


Riff B Rhythm (0:36)
E]----------------------------------------------------------------
B]----------------------------------------------------------------
G]----------------------------------------------------------------
D]7777777777777777------------------------------------------------
A]5555555555555555777777777777777788888888888888887777777777777777
E]----------------555555555555555566666666666666665555555555555555


Riff C Lead (2:31) Let the notes ring
E]-----------------------------------------------------
B]10---10-6--------10---10-6------9---9--------9---9---
G]---7-------7--------7-------7-----8------------8-----
D]--------------------------------------9-6---------9-6
A]-----------------------------------------------------
E]-----------------------------------------------------


Riff C Rhythm (2:46)
E]------------------
B]------------------
G]------------------
D]7-----------------
A]5----------------6
E]-----------------4


Riff C Rhythm (3:14)
E]-------------------------------------------------------------
B]-------------------------------------------------------------
G]-------------------------------------------------------------
D]7-7-7-7-7-7-7-7-7-7-7-7-7-7-7-7------------------------------
A]5-5-5-5-5-5-5-5-5-5-5-5-5-5-5-5-6-6-6-6-6-6-6-6-6-6-6-6-6--6-
E]--------------------------------4-4-4-4-4-4-4-4-4-4-4-4-44444
  .......................................................  .. .


Then it's all repeated again from the intro


Outro *2nd guitar just holds the single note
E]-----------------
B]-----------------
G]7*---------------
D]7----------------
A]5----------------
E]-----------------

Fin

Corrections or inquires (johnnyturbo3@yahoo.co.uk).
Anyone talented enough to write this in
Guitar Pro format please do!
Valfar R.I.P

  Visit MetalTabs.com for more metal tablature

bottom separator

Contact Us | Privacy Policy | Disclaimer
Copyright © 2001-2014 MetalTabs.com. All Rights Reserved.