top separator

Home

Forum

What's New

Submit a Tab

FAQ

Links

Contact Us

Link to Us

MetalTabs.com logo

Bands

0-9

A

B

C

D

E

F

G

H

I

J

K

L

M

N

O

P

Q

R

S

T

U

V

W

X

Y

Z

Search

What

Where
 

Katatonia - "In silence enshrined" Guitar Tab

Plain Text Version
More Katatonia Tabs

Hits: 3132
Rated: 3.50 out of 5 (2 votes)
Updated: 2006-08-17 05:37:48

 

By:

Musician1978

sendpm.gif

email.gif

Important note
This tab is available online because we obtained explicit permission from Katatonia or their label.


#----------------------------------PLEASE NOTE---------------------------------#
#This file is the author's own work and represents their interpretation of the #
#song. You may only use this file for private study, scholarship, or research. #
#Unless specified otherwise, this is NOT an official tab from the band members.#
#------------------------------------------------------------------------------#

  Visit MetalTabs.com for more metal tablature
  
Band:  Katatonia
Album: Dance of December Souls
Song:  In Silence Enshrined

Copyright (c)  No Fashion Records (1993)

Transcribed By: Justin McKinney
Email:          Lethe@adelphia.net


/  - slide up to
\  - slide down to
h  - hammer on
p  - pull off
() - sustained note


Tuning E A D G B E
Song is extremely slow and doomy; all sustained notes contain slight tremolo.
I tried to keep the notes from both guitars in relation to each other;
Hence the fact that the tab looks like it is set up weird in places.

If this isn’t 100% accurate, then it is pretty close.  Feel free to Email
If you notice something is incorrect.

0.00
Gtr. 1 (Left Channel)   NOTE!! On 2 occasions, a third
                           Guitar comes in on both channels.
|-----------|-------------|-------------|-------------|
|-----------|-------------|-------------|-------------|
|-----------|-4-2-4-5-2-2-|-------------|-4-2-4-5-2-2—|
|-2-2-3-( )-|-------------|-2-2-2/3-( )-|-------------|
|-0---------|-------------|-0-----------|-------------|
|-----------|-------------|-------------|-------------|
Gtr. 2 (Right Channel)
|-----------|-------------|-------------|-------------|
|-----------|-------------|-------------|-------------|
|-----------|-4-2-4-5-2-2-|-------------|-4-2-4-5-2-2—|
|-2-2-3-( )-|-------------|-2-2-2/3-( )-|-------------|
|-0---------|-------------|-0-----------|-------------|
|-----------|-------------|-------------|-------------|

0.20
Gtr. 1
|-----------|---------------|-------------|------------------|
|-----------|---------------|-------------|------------------|
|-----------|-7-5-7/9-4-5-2-|-------------|-/7-5-7/9-5-5/7-7-|
|-2-5-7-( )-|---------------|-2-2-2/7-( )-|------------------|
|-0---------|---------------|-0-----------|------------------|
|-----------|---------------|-------------|------------------|
Gtr. 2
|-----------|---------------|-------------|------------------|
|-----------|---------------|-------------|------------------|
|-----------|-4-2-4-5-2--2--|-------------|--4-2---4-5---2-2—|
|-2-2-3-( )-|---------------|-2-2-2/3-( )-|------------------|
|-0---------|---------------|-0-----------|------------------|
0.40
Gtr. 1
|-----------|-------------|-------------|-------------|
|-----------|-------------|-------------|-------------|
|-----------|-4-2-4-5-2-2-|-------------|-4-2-4-5-2-2—|
|-2-2-3-( )-|-------------|-2-2-2/3-( )-|-------------|
|-0---------|-------------|-0-----------|-------------|
|-----------|-------------|-------------|-------------|
Gtr. 2
|-----------|-------------|-------------|-------------|
|-----------|-------------|-------------|-------------|
|-----------|-4-2-4-5-2-2-|-------------|-4-2-4-5-2-2—|
|-2-2-3-( )-|-------------|-2-2-2/3-( )-|-------------|
|-0---------|-------------|-0-----------|-------------|
|-----------|-------------|-------------|-------------|

0.59
Gtr. 1
|-------------------|-------------------------|
|-------------------|-------------------------|
|-------------------|-------------------------|
|-2---2-2-4-5---5-5-|-4-----------------------|
|-0---0-0-2-3---3-3-|-2-5---5-5-2-2---2-2---2-|
|-------------------|---3---3-3-0-0---0-0---0-|
Gtr. 2
|-------------------|-------------------------|
|-------------------|-------------------------|
|-------------------|-------------------------|
|-2---2-2-4-5---5-5-|-4-----------------------|
|-0---0-0-2-3---3-3-|-2-5---5-5-2-2---2-2---2-|
|-------------------|---3---3-3-0-0---0-0---0-|

1.06
Gtr. 1
|-------------------|------------------------|
|-------------------|------------------------|
|-------------------|-------------4h5p4p0-2--|
|-2---2-2-4-5---5-5-|-5-5---9\2-2------------|
|-0---0-0-2-3---3-3-|------------------------|
|-------------------|------------------------|
Gtr. 2
|-------------------|------------------------|
|-------------------|------------------------|
|-------------------|------------------------|
|-2---2-2-4-5---5-5-|-5-5---9\2-2-(Hold Note)|
|-0---0-0-2-3---3-3-|------------------------|
|-------------------|------------------------|

1.13
Gtr. 1
|-------------------|-------------------------|
|-------------------|-------------------------|
|-2---2-2-4-5---5-5-|-4-2---4h5--4h5--0h2-0h2-|
|-------------------|-------------------------|
|-------------------|-------------------------|
|-------------------|-------------------------|
Gtr. 2
|-------------------|-------------------------|
|-------------------|-------------------------|
|-------------------|-------------------------|
|-2---2-2-4-5---5-5-|-4-----------------------|
|-0---0-0-2-3---3-3-|-2-5---5-5-2-2---2-2---2-|
|-------------------|---3---3-3-0-0---0-0---0-|

1.19
Gtr. 1
|-------------------|--------------------------|
|-------------------|--------------------------|
|-2---2-2-4-5---5-5-|-4-2---4h5--4h5--0h2-0h2--|
|-------------------|--------------------------|
|-------------------|--------------------------|
|-------------------|--------------------------|
Gtr. 2
|-------------------|--------------------------|
|-------------------|--------------------------|
|-------------------|--------------------------|
|-2---2-2-4-5---5-5-|-5-5---9\2-2-( Hold Note )|
|-0---0-0-2-3---3-3-|--------------------------|
|-------------------|--------------------------|

1.26
Gtr. 1
|-------------------|-------------------------|
|-------------------|-------------------------|
|-5---5-5-7-9---9-9-|-7-5-------4h5p4p0-2-( )-|
|-------------------|-------------------------|
|-------------------|-------------------------|
|-------------------|-------------------------|
Gtr. 2
|-------------------|-------------------------|
|-------------------|-------------------------|
|-------------------|-------------------------|
|-2---2-2-4-5---5-5-|-4-----------------------|
|-0---0-0-2-3---3-3-|-2-5---5-5-2-2---2-2---2-|
|-------------------|---3---3-3-0-0---0-0---0-|

1.33
Gtr. 1
|-------------------|------------------------|
|-------------------|------------------------|
|-5---5-5-7-9---9-9-|-7-5-------4h5p4p0-2-0--|
|-------------------|------------------------|
|-------------------|------------------------|
|-------------------|------------------------|
Gtr. 2
|-------------------|------------------------|
|-------------------|------------------------|
|-------------------|------------------------|
|-2---2-2-4-5---5-5-|-5-5---9\2-2-(Hold Note)|
|-0---0-0-2-3---3-3-|------------------------|
|-------------------|------------------------|

1.40
Gtr. 1
|-------------------|-------------------------|
|-------------------|-------------------------|
|-2---2-2-4-5---5-5-|-4-2---4h5--4h5--0h2-0h2-|
|-------------------|-------------------------|
|-------------------|-------------------------|
|-------------------|-------------------------|
Gtr. 2
|-------------------|-------------------------|
|-------------------|-------------------------|
|-------------------|-------------------------|
|-2---2-2-4-5---5-5-|-4-----------------------|
|-0---0-0-2-3---3-3-|-2-5---5-5-2-2---2-2---2-|
|-------------------|---3---3-3-0-0---0-0---0-|

1.46
Gtr. 1
|-------------------|--------------------------|
|-------------------|--------------------------|
|-2---2-2-4-5---5-5-|-4-2---4h5--4h5--0h2-0h2--|
|-------------------|--------------------------|
|-------------------|--------------------------|
|-------------------|--------------------------|
Gtr. 2
|-------------------|--------------------------|
|-------------------|--------------------------|
|-------------------|--------------------------|
|-2---2-2-4-5---5-5-|-5-5---9\2-2-( Hold Note )|
|-0---0-0-2-3---3-3-|--------------------------|
|-------------------|--------------------------|

1.53
Gtr. 1
|-----------|-------------|-------------|-------------|
|-----------|-------------|-------------|-------------|
|-----------|-4-2-4-5-2-2-|-------------|-4-2-4-5-2-2—|
|-2-2-3-( )-|-------------|-2-2-2/3-( )-|-------------|
|-0---------|-------------|-0-----------|-------------|
|-----------|-------------|-------------|-------------|
Gtr. 2
|-----------|-------------|-------------|-------------|
|-----------|-------------|-------------|-------------|
|-----------|-4-2-4-5-2-2-|-------------|-4-2-4-5-2-2—|
|-2-2-3-( )-|-------------|-2-2-2/3-( )-|-------------|
|-0---------|-------------|-0-----------|-------------|
|-----------|-------------|-------------|-------------|

2.13
Gtr. 1
|-----------|---------------|-------------|------------------|
|-----------|---------------|-------------|------------------|
|-----------|-7-5-7/9-4-5-5-|-------------|-/7-5-7/9-5-5/7-7-|
|-2-5-7-( )-|---------------|-2-2-2/7-( )-|------------------|
|-0---------|---------------|-0-----------|------------------|
|-----------|---------------|-------------|------------------|
Gtr. 2
|-----------|---------------|-------------|------------------|
|-----------|---------------|-------------|------------------|
|-----------|-4-2-4-5-2--2--|-------------|--4-2---4-5---2-2—|
|-2-2-3-( )-|---------------|-2-2-2/3-( )-|------------------|
|-0---------|---------------|-0-----------|------------------|
|-----------|---------------|-------------|------------------|

2.33
Gtr. 1
|-----------|---------------------|-------------|-----------------|
|-----------|---------------------|-------------|-----------------|
|-----------|-4-2-4-5-2-4h5p4p0h2-|-------------|-4-2-4-5-2-------|
|-2-2-3-( )-|---------------------|-2-2-2/3-( )-|-----------3-2---|
|-0---------|---------------------|-0-----------|---------------3-|
|-----------|---------------------|-------------|-----------------|
Gtr. 2
|-----------|---------------------|-------------|-----------------|
|-----------|---------------------|-------------|-----------------|
|-----------|-4-2-4-5---------2-2-|-------------|-4-2-4-5-2-( )---|
|-2-2-3-( )-|---------------------|-2-2-2/3-( )-|-----------------|
|-0---------|---------------------|-0-----------|-----------------|
|-----------|---------------------|-------------|-----------------|

2.51
Gtrs. 1 & 2 times 4
|-----------------|-----------------|
|-----------------|-----------------|
|-----------------|---------------9-|
|----7-9-10-9-7---|----7-9-10-9-7---|
|-/7------------7-|-/7--------------|
|-----------------|-----------------|

3.13
Gtrs. 1 & 2 times 4
|-----------------|----------------|
|-----------------|----------------|
|-----9-7---------|----5-----5-4---|
|---7-----10-9----|--5---5-------5-|
|-7------------10-|-3-------2------|
|-----------------|----------------|



3.32
Gtrs. 1 & 2
|-----------------|-----------------|
|-----------------|-----------------|
|-----------------|---------------9-|
|----7-9-10-9-7---|----7-9-10-9-7---|
|-/7------------7-|-/7--------------|
|-----------------|-----------------|


Gtrs. 1 & 2
|-----------------|-----------------|
|-----------------|-----------------|
|-----------------|-----------------|
|----7-9-10-9-7---|----7-9-10-9-7-9-|
|-/7------------7-|-/7--------------|
|-----------------|-----------------|

Gtrs. 1 & 2
|-----------------|-----------------|
|-----------------|-----------------|
|-----------------|---------------9-|
|----7-9-10-9-7---|----7-9-10-9-7---|
|-/7------------7-|-/7--------------|
|-----------------|-----------------|

Gtrs. 1 & 2
|-----------------|-----------------|
|-----------------|-----------------|
|-----------------|-----------------|
|----7-9-10-9-7---|----7-9-10-9-7---|
|-/7------------7-|-/7------------7-|
|-----------------|-----------------|

3.51
Gtrs. 1 & 2 times 12.   !! Second and forth times, it is palm muted !!
|----------------------------------| After the eighth  |---------|
|----------------------------------| time, a third     |---------|
|-----9---10---7---9---5---7---4-5-| guitar strums     |-2-------|
|-7-7---7----7---7---7---7---7-----| this and lets it  |-2-------|
|----------------------------------| ring out while    |-0-------|
|----------------------------------| the other guitars |---------|
                                      carry on with the remaining 4 riffs


4.30
Gtrs 1 & 2 Play the next “group” of 4 measures twice.
Second time third guitar comes in, but not really sure
What is going on with it.  !!Minor discrepancy!!  Just
A slight harmony of the other guitars.
|----------------------------------------------|
|----------------------------------------------|
|----------------------------------------------|
|-7--7--7-7--7--7--7-7--7--7--7-7--7--9--10-10-|
|----------------------------------------------|
|----------------------------------------------|
4.33
|------------------------------------------------|
|------------------------------------------------|
|----------------------------------------------7-|
|-9--9-9-9-9-9--9--9-9-9-9-9--9--9-9-9-9-9--10---|
|------------------------------------------------|
|------------------------------------------------|
4.37
|-------------------------------------------------|
|-------------------------------------------------|
|-7--9-9-9-9-9--9--9-9-9-9-9--9--9-9-9-9-9--7--10-|
|-------------------------------------------------|
|-------------------------------------------------|
|-------------------------------------------------|
4.40
|--------------------------------------------------------|
|--------------------------------------------------------|
|----------------------------------------7h9p7-----------|
|-9--9-9-9-9-9--9--9-9-9-9-9—10p9p7h9h10-------10p9h10p9-|
|--------------------------------------------------------|
|--------------------------------------------------------|

Back to prior riff
4.56
Gtrs. 1 & 2 times 8
|----------------------------------|
|----------------------------------|
|-----9---10---7---9---5---7---4-5-|
|-7-7---7----7---7---7---7---7-----|
|----------------------------------|
|----------------------------------|

5.22
Gtr. 1
|-----------|-------------|-------------|-------------|
|-----------|-------------|-------------|-------------|
|-----------|-4-2-4-5-2-2-|-------------|-4-2-4-5-2-2—|
|-2-2-3-( )-|-------------|-2-2-2/3-( )-|-------------|
|-0---------|-------------|-0-----------|-------------|
|-----------|-------------|-------------|-------------|
Gtr. 2
|-----------|-------------|-------------|-------------|
|-----------|-------------|-------------|-------------|
|-----------|-4-2-4-5-2-2-|-------------|-4-2-4-5-2-2—|
|-2-2-3-( )-|-------------|-2-2-2/3-( )-|-------------|
|-0---------|-------------|-0-----------|-------------|
|-----------|-------------|-------------|-------------|

5.43
Gtr. 1
|-----------|---------------|-------------|------------------|
|-----------|---------------|-------------|------------------|
|-----------|-7-5-7/9-4-5-5-|-------------|-/7-5-7/9-5-5/7-7-|
|-2-5-7-( )-|---------------|-2-2-2/7-( )-|------------------|
|-0---------|---------------|-0-----------|------------------|
|-----------|---------------|-------------|------------------|
Gtr. 2
|-----------|---------------|-------------|------------------|
|-----------|---------------|-------------|------------------|
|-----------|-4-2-4-5-2--2--|-------------|--4-2---4-5---2-2—|
|-2-2-3-( )-|---------------|-2-2-2/3-( )-|------------------|
|-0---------|---------------|-0-----------|------------------|
|-----------|---------------|-------------|------------------|

6.02
Gtr. 1
|-----------|---------------------|
|-----------|---------------------|
|-----------|-4-2-4-5-2-4h5p4p0h2-|
|-2-2-3-( )-|---------------------|
|-0---------|---------------------|
|-----------|---------------------|
Gtr. 2
|-----------|--------------------|
|-----------|--------------------|
|-----------|-4-2-4-5--------2-2-|
|-2-2-3-( )-|--------------------|
|-0---------|--------------------|
|-----------|--------------------|

6.12
Gtr. 1
|-------------|----------------------|
|-------------|----------------------|
|-------------|-4-2-4-5-7-5-4-2-4-5-2|
|-2-2-2/3-( )-|----------------------|
|-0-----------|----------------------|
|-------------|----------------------|
Gtr. 2
|-------------|-----------------------|
|-------------|-----------------------|
|-------------|-4-2-4-5-2-( )---------|
|-2-2-2/3-( )-|-----------------------|
|-0-----------|-----------------------|
|-------------|-----------------------|

  Visit MetalTabs.com for more metal tablature

bottom separator

Contact Us | Privacy Policy | Disclaimer | Legal Notice
Copyright © 2001-2014 MetalTabs.com. All Rights Reserved.