top separator

Home

Forum

What's New

Submit a Tab

FAQ

Links

Contact Us

Link to Us

MuSpy.com

MetalTabs.com logo

Bands

0-9

A

B

C

D

E

F

G

H

I

J

K

L

M

N

O

P

Q

R

S

T

U

V

W

X

Y

Z

Search

What

Where
 

Gates of Ishtar - "Eternal Sin" Guitar Tab

Plain Text Version
More Gates of Ishtar Tabs

Hits: 1780
Updated: 2006-08-17 05:31:01

 

By:

xgrafcorex

sendpm.gif

email.gif

Important note
This tab is available online because we obtained explicit permission from Gates of Ishtar or their label.


#----------------------------------PLEASE NOTE---------------------------------#
#This file is the author's own work and represents their interpretation of the #
#song. You may only use this file for private study, scholarship, or research. #
#Unless specified otherwise, this is NOT an official tab from the band members.#
#------------------------------------------------------------------------------#

  Visit MetalTabs.com for more metal tablature
  
band: gates of ishtar
song: eternal sin
album: the dawn of flames
copyright: death records 1998

transcribed by: brian flanagan
email: xgrafcorex@hotmail.com

tuning: standard d

. palm mute
^ bend
/ slide up
\ slide down


  :00                       :17
e|-------------------------|-------part 1------------------------------|
B|----intro----------------|-------------------------------------------|
G|---------2-4-------------|---------------------2---------------------|
D|---5-4---------5-4---4-5-|-2-4-5-------2-4-5-4-----2-4-5-------------|
A|-7-----3-----5-----------|-------5-3-2-------------------5-3-2-3---2-|
E|-------------------7-----|---------------------------------------3---|


  :55                               1:07     1:32     1:56
e|-----part 2----------------------|--------|--------|-----part 3--|
B|---------------------------------|--------|--------|-------------|
G|-----------4-2---2-------------2-|--------|--------|-0-2-4-------|
D|-2-4-5---------5---5-4---2-4-5---|-part 1-|-part 2-|-------5-4-5-|
A|-------5-3-------------5---------|--------|--------|-------------|
E|---------------------------------|--------|--------|-------------|


  1:59                                2:23    2:41     3:19     3:43
e|-------part 4----------------------|-------|--------|--------|--------|
B|-----------------------------------|-------|--------|--------|--------|
G|-----------------2---2---2-4-2-----|-------|--------|--------|--------|
D|-5-4-5-4-5-4-5-4---5---5-------5-4-|-intro-|-part 1-|-part 2-|-part 3-|
A|-----------------------------------|-------|--------|--------|--------|
E|-----------------------------------|-------|--------|--------|--------|


  3:47
e|--------|
B|--------|
G|--------|
D|-part 4-| end
A|--------|
E|--------|

  Visit MetalTabs.com for more metal tablature

bottom separator

Contact Us | Privacy Policy | Disclaimer | Legal Notice
Copyright © 2001-2014 MetalTabs.com. All Rights Reserved.