top separator

Home

Forum

What's New

Submit a Tab

FAQ

Links

Contact Us

Link to Us

MetalTabs.com logo

Bands

0-9

A

B

C

D

E

F

G

H

I

J

K

L

M

N

O

P

Q

R

S

T

U

V

W

X

Y

Z

Search

What

Where
 

Bewitched - "Hellcult" Guitar Tab

Plain Text Version
More Bewitched Tabs

Hits: 1653
Updated: 2006-08-17 05:30:29

 

By:

sendpm.gif

email.gif

Important note
We did our best to reach Bewitched and ask for their permission to publish this tab. Unfortunately they did not respond to our requests or we could not find a way to contact them. This tab is available online until Bewitched tells us to take it down.


#----------------------------------PLEASE NOTE---------------------------------#
#This file is the author's own work and represents their interpretation of the #
#song. You may only use this file for private study, scholarship, or research. #
#Unless specified otherwise, this is NOT an official tab from the band members.#
#------------------------------------------------------------------------------#

  Visit MetalTabs.com for more metal tablature
  
Band: Bewitched
Album: Diabolical Desecration
Song: Hellcult
Copyright (c)  1996 (Osmose)
Version 1.0 - 2006-7-19

Transcribed By: Benjamin Gheysels
Email:          benjamingheysels@hotmail.com


.  - palm mute           /  - slide up to
\  - slide down to       ~  - vibrato
h  - hammer on           b  - Bend
p  - pull off            Suffixes for bend
t  - tap                 f  - full bend    h - half bend
ph - pinched harmonic    q  - quarter bend t - tap bend
*  - see comment         ^  - Hold bend    r release bend
x  - Stuccatto           ~  - vibrato bend
,  - slight palm mute    () - ghost note, sustained note
"  - tremolo note        <> - Trill
ps - pick scrape

Tuning E A D G B E

|--------|
|--------|
|--------|
|---2----|
|---2----|
|---0----|

Riff 1: play 4 times
       (last time, don't play chords between brackets and replace by a stop)
|----------------------------------------|
|----------------------------------------|
|----------------------------------------|
|---2-2-----2-2-----2-2-----2-2----------|
|---2-2-----2-2-----2-2-----2-2---3-3----|
|---3-0-----3-0-----3-0-----3-0---1-1----|

|----------------------------------------|
|----------------------------------------|
|----------------------------------------|
|---2-2-----2-2-----2-(2-----2-2---2-2)--|
|---2-2-----2-2-----2-(2-----2-2---0-0)--|
|---3-0-----3-0-----3-(0-----3-0---------|

Riff 2: play 2 times. Chord between brackets only first time
|-----------------------------------------------------------------------|
|-----------------------------------------------------------------------|
|-----------------------------------------------------------------------|
|---------2-2-----2-2-----2-2-------------2-2-----2-2-----2-2---2-2-----|
|---(3)---2-2-----2-2-----2-2---3-3-------2-2-----2-2-----2-2---0-0-----|
|---(1)---3-0-----3-0-----3p0---1-1-------3-0-----3-0-----3p0-----------|

Riff 1: play 4 times
       (last time, don't play chords between brackets and replace by a stop)

Riff 3: play 2 times. Chord between brackets only first time
|------------------------------------------------------------------|
|------------------------------------------------------------------|
|------------------------------------------------------------------|
|---------2--2----2---2---2-------2--2--2--------------------------|
|---(6)---0--0----0h3-0h3-0-------0--0--0---6p5p0--6p5p0--6p5p0----|
|---(4)--------------------h3--------------------------------------|

|--------------------------------------------------------|
|--------------------------------------------------------|
|--------------------------------------------------------|
|---2--2----2---2---2--------2--2--2---------------------|
|---0--0----0h3-0---0--------0--0--0---6p5--3h5--6p5-----|
|----------------h3--h3----------------------------------|

Lead:
|------------------------------------------------------------|
|------------------------------------------------------------|
|---(7)/9----/11----\9----/11----/12----/14----/16--- ~ -----|
|------------------------------------------------------------|
|------------------------------------------------------------|
|------------------------------------------------------------|

Background riff for lead:
|------------------------------------------------------|
|------------------------------------------------------|
|------------------------------------------------------|
|------5------7------5------7------5------7------2-----|
|------3------5------3------5------3------5------2-----|
|------------------------------------------------0-----|

Riff 1: play 4 times
       (last time, don't play chords between brackets and replace by a stop)

Riff 4: play twice. Chord between brackets only first time
|--------------------------------------------------------------------------|
|--------------------------------------------------------------------------|
|--------------------------------------------------------------------------|
|------2--2---2--2-2--2-----2-2---3--3-----2--2---2--2-2--2-----2-2--------|
|-(6)--0--0---0--3p0--0-----3p0---1--1-----0--0---0--3p0--0-----3p0---3--3-|
|-(4)-----------------------------------------------------------------1--1-|

Riff 1: play 4 times
       (last time, don't play chords between brackets and replace by a stop)

Riff 5: play 4 times. Chord between brackets only first time
|-------------------------------------------------------------|
|-------------------------------------------------------------|
|-------------------------------------------------------------|
|------2-2----2-2----2-2---3-3------2-2----2-2----2-2---------|
|-(6)--3-0----3-0----3p0---1-1------3-0----3-0----3p0--5-5----|
|-(4)---------------------------------------------------------|

Riff 1: play 4 times
       (last time, don't play chords between brackets and replace by a stop)


That's it! Enjoy!!!

  Visit MetalTabs.com for more metal tablature

bottom separator

Contact Us | Privacy Policy | Disclaimer | Legal Notice
Copyright © 2001-2014 MetalTabs.com. All Rights Reserved.